a b c d e f g h i j k l m n o p q r s t u v w x y z 0-9

Galopando

La 25

			
SOLO

e|----------------------|----------|---------------|-----------------------|----------|
B|----------------------|-15~-17-15|---------------|-----------------------|----------|
G|------12-14^14-12--14^|----------|16-14^14-12-14-|-----12-14-12-14^14-12-|12~-14p12-|
D|-12-14-----------14---|----------|---------------|12h14------------------|----------|
A|----------------------|----------|---------------|-----------------------|----------|
E|----------------------|----------|---------------|-----------------------|----------|

e|--------------|------------|-----------|----------15-|-17^-15---------|--------|
B|--------------|----15---15-|---15---15-|-----15-17---|----------------|-15~-17-|
G|-14^14-12--12-|-14^--14^---|-14^--14^--|-14h16-------|--------14-12-14|--------|
D|---------14---|------------|-----------|-------------|----------------|--------|
A|--------------|------------|-----------|-------------|----------------|--------|
E|--------------|------------|-----------|-------------|----------------|--------|

e|----------|-------|----------------------|-----|
B|----------|----15-|----------------------|-----|
G|-16-14-12-|-14^---|-14^14-12-------------|-----|
D|----------|-------|--------14-12---------|-----|
A|----------|-------|-------------14-13-12-|-----|
E|----------|-------|----------------------|-14~-|

Fuente original ATAME [www.atame.org]
Colaborador original: Pioj0so25 [saint_of_me25@hotmail.com]

Fuente: tusacordes.com