a b c d e f g h i j k l m n o p q r s t u v w x y z 0-9

El Ataud

La 25

			
Intro:
 
    A
|--------------|
|--------------|
|--------------| 
|-----7p5h6----| x2 +x6 con la 1ºguitarra 
|--5--5---5--|
|--5--------5--|

 1º Guitarra
|------|------|--------------|--------------|
|------|------|--------------|--------------|
|------|------|--------------|--------------|
|------|------|--------h7----|--------h7----|
|--5e--|--5e--|--5-5-5----5--|--5-5-5----5--|
|-5--|-5--|-5----------|-5----------|

|-------------------------------------|
|-------------------------------------|
|-----------------------------------7-|
|-------------------------------7-5---|
|-5-5-8--5-5-8--5-5-8--5-5-8-5--------|
|-------------------------------------|


A5           
Escapaste ya de todos nena, pero menos de mi
      D5				    A5
me estaban velando en un pueblo pero bien al sur 
      E5                                       A5
me estaban dando todos por muerto y gozo de salud

Buen momento nena para q salgamos de aqui
espera ver mover mi calavera para darmelo
me estaban velando de parado en un barrio del sur

        D5                                          A5
Estaban todos menos vos cargando nena ese maldito ataud
        D5                                      A5
menos vos cargaban pero todos nena ese maldito ataud
      E5                                      A5
me estaban velando de parado en un barrio del sur

SOLO

|-------------------|
|-------------------|
|--5/7--7--7--7--7--|
|--7/9--9--9--9--9--|x2
|--8/10-10-10-10-10-|
|-------------------|

|------------------------------------------------------------------------ 
|------------------------------------------------------------------------ 
|--5/7--7--7--7--7--------------------12p10h11--------------------------- -----» es lo q pude sacar por ahora, 
|--7/9--9--9--9--9--------------7-9-9-------9-------11---------------        no esta perfecto, ni completo,
|--8/10-10-10-10-10-8-10-108-8-10----------10-12-10----10-10h12p10-10        pero por lo menos para empezar...
|-------------------------10--8------------------------------------------


Saldremos dando vueltas por las calles pero desatame
el de rojo esta en la puerta y ya me arrastra donde viene el calor
su fuego me quema mis zapatos pero sacamelo

Buen momento nena para q salgamos de aqui
espera ver mover mi calavera para darmelo
me estaban velando de parado y gozo de salud

Estaban todos menos vos cargando nena ese maldito ataud
menos vos cargaban pero todos nena ese maldito ataud
me estaban velando de parado en un barrio del sur
       E5                                      A5
me estaban velando de parado en un barrio del sur
       E5                                      A5
me estaban velando de parado en un barrio del sur

Fuente original ATAME [www.atame.org]
Colaborador original: El Enano [9]

Fuente: tusacordes.com