a b c d e f g h i j k l m n o p q r s t u v w x y z 0-9

Desde El Cielo

La 25

C
A
D
E
			
INTRO

E |------------------------------------------------------
A |--------------------7---------------------------------
D |------------7--5-----5--7--5-5--7-7-------------------  x6
G |--5-5-5---------------------------------7--5----------
B |--5-5-5---------------------------------7--5----------
E |------------------------------------------------------

E |-------------5-------------
A |-------------7-------------
D |-------------7-------------
G |--5-5-5--------------------
B |--5-5-5--------------------
G |---------------------------

C A 
A TODOS USTEDES 
C A 
QUE VELAN POR Mi 
C A 
LES DIGO HASTA LUEGO
C A 
NOS VEMOS ALLA
C A 
CAMINARE
C A 
FLOTANDO SOBRE ESTA GENTE
C A 
Y CUANDO SE VALLAN
C A 
QUIEN SE HARA CARGO DE Mi 
C D
TODA MI FE
A
MUERTA YA
C D
CAEN LAS VELAS
A
SOBRE MI TUMBA
C D
TODO MI ROCK
A
LLEVO EN MI MUERTE
E MIb  D               A 
Y ASI PUEDO VERME DESDE EL CIELO
C A 
TE ACERCAS ME DICES
C A 
NO SE QUE AL OIDO
C A 
TE DIGO QUE Si 
C A 
PERO NADA ENTENDI
C A 
DESALMADO
C A 
EN UN COSTADO QUEDE
C A 
DE MALA VIDA
C A 
ME TENES
C D
EN MI CEREMONIA
A
QUEDA UN DESEO
C D
REZAR POR Mi 
A
Y PEDIR AL CIELO
C D
TODO MI ROCK
A
HASTA LA MUERTE
E Mib D              A 
Y ASI PUEDO VERME DESDE EL CIELO

Fuente original ATAME [www.atame.org]
Colaborador original: Pioj0so25 [brunito_fc@hotmail.com]

Fuente: tusacordes.com