a b c d e f g h i j k l m n o p q r s t u v w x y z 0-9

Dando Vueltas

La 25

			
Intro:
                  *
e|---------------------|--|  |--------------------------------------------------|--|
B|---------------------|--|  |--------------------------------------------------|--|
G|--------------2bp0-|x4|  |--------------------------------------------------|x2|
D|-------5-5--5--------|--|  |-------5-----5-----5---5--------5-----5-----5-7-5-|--|
A|-5h7p5---------------|--|  |-5h7p5---7p5---7p5---7----5h7p5---7p5---7p5-------|--|
E|---------------------|--|  |--------------------------------------------------|--|

e|------------|-------------|  |--------------|--|  |--------------|--|
B|------------|-------------|  |--------------|--|  |--------------|--|
G|------------|-------------|  |--------------|x4|  |-7-6-5-3------|x4|
D|-7b-7b-5----|----------5~-|  |-1/3----------|--|  |-7-6-5-3--3/5-|--|
A|---------7~-|-----5h7-----|  |-3/5--3-3-3-3-|--|  |----------3/5-|--|
E|------------|-5h7---------|  |------5-5-5-5-|--|  |--------------|--|

* Nota: en esta parte lo que se debe hacer es estirar la cuerda
          y luego soltarla por si no se entendia...

Para que salga bien la intro tienen que hacerla en forma de cejilla en D.


Es la ruta del oeste
va acercandome al lugar
me parece haber estado lejos
de aquel negro festival.
Mis entradas estan sin nombre,
vale por estar aca,
esta sonando un blues muy negro
me recuerdas mas y mas.

Nena no me digas
que todo ya acabo.

Me dejaste ya sin chances,
y lo mejor no paso,
y sigo
dando vueltas, dando vueltas hoy
maldito blues.
Y sigo
dando vueltas, dando vueltas hoy
maldito blues.

Fuente original ATAME [www.atame.org]
Colaborador original: Juan Diego Young [juandy10@hotmail.com]

Fuente: tusacordes.com