a b c d e f g h i j k l m n o p q r s t u v w x y z 0-9

Dando Vueltas

La 25

G
C
D
			
Introduccion Dando Vueltas:


E---------------------------------------------------------------------------------------
B---------------------------------------------------------------------------------------
G-----0-0---0-3-0----------0-0---0-3-0---------0-0---0-3-0---------0-0--0-3-0-----------
D-0^2------------------0^2-----------------0^2-----------------0^2----------------------
A---------------------------------------------------------------------------------------
E---------------------------------------------------------------------------------------

Segunda parte: repite 2 veces

E----------------------------------------------------------
B----------------------------------------------------------
G-----0------0------0----0--------0------0------0--2--0----
D-0^2----0^2----0^2----2------0^2----0^2----0^2------------
A----------------------------------------------------------
E----------------------------------------------------------


     G
ES LA RUTA DEL OESTE
VA ACERCANDOME AL LUGAR
ME PARECE HABER ESTADO LEJOS
DE AQUEL NEGRO FESTIVAL
MIS ENTRADAS ESTAN SIN NOMBRE
VALE POCO ESTAR ACA
ESTA SONANDO UN BLUES MUY NEGRO
ME RECUERDAS MAS Y MAS
 
      C
NENA NO ME DIGAS
QUE TODO SE ACABO
        
       G
ME DEJASTE YA SIN CHANCES
Y LO MEJOR NO PASO
Y SIGO
D               C
DANDO VUELTAS, DANDO VUELTAS HOY
SOL
MALDITO BLUES...

FIJENSEN BIEN EN LOS TIEMPOS..
AGUANTE LOS GUASONES LOKOOOOO Y LA 25	  guasonshegio@hotmail.com 
´´ETERNAMENTE DESVELADO´´

Fuente original ATAME [www.atame.org]
Colaborador original: SHEGIO [GUASONSHEGIO@HOTMAIL.COM]

Fuente: tusacordes.com