a b c d e f g h i j k l m n o p q r s t u v w x y z 0-9

Con El Rock En Las Venas

La 25

			
Nota
h    : hamer on
p    : pull off
...  : pausa
   : subir o bajar la cuerda según lo indique el N° que esta dentro de
      él
L    : Ligado
^    : levantar la cuerda
/    : slide

************************************************************************************************

Intro:
                                                        RIFF 1
1)------5----5---------------------------------|   |-----5...----5...-|
2)-----5-5---5---------------------------------|   |-5-7-5...--7-5...-|
3)-5h7-----7----7-5----------------------------|   |-5-7-------7------|
4)--------------------7-5----------------------|   |------------------|
5)--------------------------7-9-7-9-7-9-7-9-7-9|   |------------------|
6)--------------------------5---5---5?--5---5--|   |------------------|


A5
vos preferís estar tirado sin un mango en el bolsillo
E5                             D5 D5 D5 A
arrimarte donde calienta el sol
A5
y cerras la puerta o apagas la radio
      E5
y q te canten una canción de amor
                  D5                                          A5 RIFF 1
yo quiero estar tirado en el sillón de mi casa pensando en partir
                 E5                   D5                  A5  D5 D5 D5
si tengo q levantarme temprano en las mañanas prefiero morir

                                                               RIFF 2
                                                        1)----------5...|
este suelo q pisamos de escenario de esta vida          2)----7-9-7-5...|
E5                            RIFF 2                    3)-7-9----------|
que te ara triunfar o fracasar                          4)--------------|
Y el camino es largo y no tenes salida                  5)--------------|
Decís que no da para más                                6)--------------|
Ella se fue echándote la culpa de todo lo que nunca sabes
Decís que no te hace falta salís a buscarla pero no te hace bien

        D5                                 A5
Y a pensar de los consejos nos volvimos a caer
D5                                        A5
Nos dejamos llevar por el rock en las venas
D5                            A5
Y escondido en la noche y aturdido de escuchar
                  E5                       A5
Esa voz que me dirá que mejor no podes estar


D5                                           A5
Yo no se si es fiebre de hoy, o vientos del ayer que me harán volver
D5                                                  A5
Como el perro que olvido enterrado su hueso en la guarida
         D5                               A5
El quiso ser un rocker que no tiene rock, todo es mas sencillo sabes
                E5                         A5
Serán el rock y vos y yo, los que no van a morir


  RIFF 1   RIFF  2      RIFF 3
1)-8^^-5|----------|-----------|-
2)-7^^-5|----------|-----------|-
3)------|-7/9....--|9^L9-7-----|-
4)------|----------|-------9...|-
5)------|----------|-----------|-
6)------|----------|-----------|-


A5 A5                  RIFF 1   A5 A5    RIFF 1
      Y Esta esquina esta brava y los pibes
                        RIFF 2               RIFF 3
      Se agarran de los huevos para no perder
A5 A5                    RIFF 1 A5 A5       RIFF 1
      Llega el gorra de turno con su ropa prestada
      RIFF 3
      Que te hará



      La yuta puta reprime por todos lugares que te moves

      Y tu casa queda demasiado lejos para volver


PUNTEO:

1)---------8-5----------8-5|------------8-7-5-------5-7-5--------------|
2)----5-7?-7-5-----5-7?-7-5|------7-5---------5-7-8-------7-5----------|
3)-5-7----------5-7--------|-5-7-5----------------------------76...--|
4)-------------------------|-------------------------------------------|
5)-------------------------|-------------------------------------------|
6)-------------------------|-------------------------------------------|

1)-------------------|----------|----------------------------------------
2)-------------------|----------|-----------------------------------9-9-9
3)-7p5...-7p5--------|----------|-----5-7/9-9-9-9---------5----5----9-9-9
4)-----------76....|-7p5?-7...|-5-7-------------7/9/7...?7...?-7-------
5)-------------------|----------|----------------------------------------
6)-------------------|----------|----------------------------------------

1)--------|
2)-7-7-7--|
3)-7-7-7--|
4)--------|
5)--------|
6)--------|
repite desde la segunda estrofa

Serán el rock y vos y yo, los que no van a morir 5

1)-5...-5...---------------|
2)-5...-5...?-7...---------|
3)------------7...7-5------|
4)--------------------7....|
5)-------------------------|
6)-------------------------|

BUENO ACA ESTA--- costo pero salió cualquier duda o sugerencia hacerla a federnr_la25@hotmail.com
aguante la 25!!!! con el rock en la venas

Fuente original ATAME [www.atame.org]
Colaborador original: Federico [federnr_la25@hotmail.com]

Fuente: tusacordes.com