a b c d e f g h i j k l m n o p q r s t u v w x y z 0-9

Chico Comun

La 25

			
INTRO :   en RE5 

1)------------------------------------------------------------------
2)------------------------------------------------------------------
3)---2-2-------2-----2-2-------2----2-2------2------2------2--------
4)---0-0--3-4--0-----0-0--3-4--0----0-0--3-4-0--3-4-0--3-4-0--------
5)------------------------------------------------------------------
6)------------------------------------------------------------------


            D5
El es un chico común como solia haber
          A5
En cualquier barrio de hoy
             D5
Ella es la chica bien que vagaba sola
         A5
En aquella vieja estación

         G5                                         D5
Y se cruzaron aquel dia de tarde y el silencio partio
          A5                          G5                  D5
Pero quien iba a pensar que aquella tarde sus vidas cambió

       D5
Aca estoy, esto soy
       A5
Se lo dijo sin ningún temor
        D5
Estas calles son mías todas caminadas
  A5
Con el carazón

           G5                                   D5
Y fue tomando valor en ese bar que le quedó de paso
        A5                      G5                D5
Y sobrado de unos tragos confesó su despido final

            G5                                D5
Cuando te vayas detendré el reloj en el tiempo
              G5                                         D5
Y como ofrenda llevaste ese pañuelo que enroscaba en mi cuello
           G5                                                  D5
Como recuerdo de vos comienzo el rock así, que dice 1,2,3 va...
            A5                 G5                D5
Como olvidarla no, si su recuerdo es este rocanrol.

SOLO 1 :

1|-----------|-------|------------|----------------|-------------|-----------|------------|
2|-----------|----10-|------------|----10-10-7-----|-------------|-----------|-10----10---|
3|-------7-9-|-9^----|-9^9-7---7--|-9^---------9-7-|---7-9-7---7-|-9-7---7-9^|----9^---9^-|
4|---7-9-----|-------|--------9---|----------------|-9-------9---|-----9-----|------------|
5|-9---------|-------|------------|----------------|-------------|-----------|------------|
6|-----------|-------|------------|----------------|-------------|-----------|------------|

1|---------|-------------|-12^-12^12-10--10--|-12^-10-----------|-----------------------|
2|-10---10-|-------10-12-|--------------12---|------------------|---10------------------|
3|----9^---|-7h9-11------|-------------------|--------11-9-11---|-9^---9^9-7------------|
4|---------|-------------|-------------------|---------------12-|------------9-7--------|
5|---------|-------------|-------------------|------------------|----------------9-7----|
6|---------|-------------|-------------------|------------------|-------------------10--|



      D5
Aca estoy, y me voy
          A5
Dejando un suspiro en la estación
     D5
Perdiéndome en estas calles dijo
       A5
Nos vemos en la nueva canción
             G5                             D5
Y como olvidar, y que pensar, mientras se aleja ese vagón
         A5                G5                         D5
Ella me dejó, sólo es la letra de esta nueva canción.

             G5                              D5
Cuando te vayas detendré el reloj en el tiempo
            G5                                             D5
Y como ofrenda llevaste ese pañuelo que enroscaba en mi cuello
             G5                                          D5
Como recuerdo de vos comienzo el rock así, que dice 1,2,3 va...
             A5                G5               D5
Como olvidarla no, si su recuerdo es este rocanrol.

SOLO 2 :

1|------10-12^-12-10-|--10-12^-12-10-|--10-12^-10-|-----------|------10-12^-12-10--|
2|-10h12-------------|-12------------|-12---------|-11-9-11---|-10h12--------------|
3|-------------------|---------------|------------|--------12-|--------------------|
4|-------------------|---------------|------------|-----------|--------------------|
5|-------------------|---------------|------------|-----------|--------------------|
6|-------------------|---------------|------------|-----------|--------------------|

1|---10-12/13-13-13-13/12-10-|-----------|------10-12^-12-10-|---10-12/14-15-17-|
2|-12------------------------|--------10-|-10h12-------------|-12---------------|
3|---------------------------|-11-9--9---|-------------------|------------------|
4|---------------------------|-----12----|-------------------|------------------|
5|---------------------------|-----------|-------------------|------------------|
6|---------------------------|-----------|-------------------|------------------|

1|-15-13-10-----12^-|---10~-|--------|------------|----|-------|----------|------|
2|---------10h12----|-12----|--------|-10-10-7-7--|----|----10-|-7--------|------|
3|------------------|-------|-9^9-7--|--------9-9-|-7~-|-99^---|--9-7-----|------|
4|------------------|-------|--------|------------|----|-------|-----9-7--|------|
5|------------------|-------|--------|------------|----|-------|--------9-|-7----|
6|------------------|-------|--------|------------|----|-------|----------|--10--|

1|---------------|--------|--------|--------------|--------|
2|---------------|-10~----|--------|-10---10---10-|--------|
3|---------7-9-9^|----9^9-|-7--7-9^|---9^---9^----|-9^9-7~-|
4|------7-9------|--------|--9-----|--------------|--------|
5|---7-9---------|--------|--------|--------------|--------|
6|-10------------|--------|--------|--------------|--------|

BUENO AKA TIENEN TODO EL TEMITA PERFECTO..........
IVA GORDA TE AMO!!!!!!!! NUNCA ME FALTES PORQUE ME MUERO!!!! ELPATO

Fuente original ATAME [www.atame.org]
Colaborador original: pato [pato_rock72@hotmail.com]

Fuente: tusacordes.com