a b c d e f g h i j k l m n o p q r s t u v w x y z 0-9

Chico Comun

La 25

			
1° SOLO
e|-----------|-------|------------|----------------|-------------|-----------|------------|
B|-----------|----10-|------------|----10-10-7-----|-------------|-----------|-10----10---|
G|-------7-9-|-9^----|-9^9-7---7--|-9^---------9-7-|---7-9-7---7-|-9-7---7-9^|----9^---9^-|
D|---7-9-----|-------|--------9---|----------------|-9-------9---|-----9-----|------------|
A|-9---------|-------|------------|----------------|-------------|-----------|------------|
E|-----------|-------|------------|----------------|-------------|-----------|------------|

e|---------|-------------|-12^-12^12-10--10--|-12^-10-----------|-----------------------|
B|-10---10-|-------10-12-|--------------12---|------------------|---10------------------|
G|----9^---|-7h9-11------|-------------------|--------11-9-11---|-9^---9^9-7------------|
D|---------|-------------|-------------------|---------------12-|------------9-7--------|
A|---------|-------------|-------------------|------------------|----------------9-7----|
E|---------|-------------|-------------------|------------------|-------------------10--|

2°SOLO
e|------10-12^-12-10-|--10-12^-12-10-|--10-12^-10-|-----------|------10-12^-12-10--|
B|-10h12-------------|-12------------|-12---------|-11-9-11---|-10h12--------------|
G|-------------------|---------------|------------|--------12-|--------------------|
D|-------------------|---------------|------------|-----------|--------------------|
A|-------------------|---------------|------------|-----------|--------------------|
E|-------------------|---------------|------------|-----------|--------------------|

e|---10-12/13-13-13-13/12-10-|-----------|------10-12^-12-10-|---10-12/14-15-17-|
B|-12------------------------|--------10-|-10h12-------------|-12---------------|
G|---------------------------|-11-9--9---|-------------------|------------------|
D|---------------------------|-----12----|-------------------|------------------|
A|---------------------------|-----------|-------------------|------------------|
E|---------------------------|-----------|-------------------|------------------|

e|-15-13-10-----12^-|---10~-|--------|------------|----|-------|----------|------|
B|---------10h12----|-12----|--------|-10-10-7-7--|----|----10-|-7--------|------|
G|------------------|-------|-9^9-7--|--------9-9-|-7~-|-99^---|--9-7-----|------|
D|------------------|-------|--------|------------|----|-------|-----9-7--|------|
A|------------------|-------|--------|------------|----|-------|--------9-|-7----|
E|------------------|-------|--------|------------|----|-------|----------|--10--|

e|---------------|--------|--------|--------------|--------|
B|---------------|-10~----|--------|-10---10---10-|--------|
G|---------7-9-9^|----9^9-|-7--7-9^|---9^---9^----|-9^9-7~-|
D|------7-9------|--------|--9-----|--------------|--------|
A|---7-9---------|--------|--------|--------------|--------|
E|-10------------|--------|--------|--------------|--------|


VAMOS LA 25 CHEE!!

Fuente original ATAME [www.atame.org]
Colaborador original: Pioj0so25 [saint_of_me25@hotmail.com]

Fuente: tusacordes.com