a b c d e f g h i j k l m n o p q r s t u v w x y z 0-9

Astillas

La 25

			
NOTA:
   : es estirar la cuerda, o bajarla hasta que lo indique el numero q esta dentro del
       paréntesis
/    : slide
...  : pausa
p    : pull off
h    : hamer on

Intro

1)---------7-7-7-7---------7-7-7-7-------|10-7-10-7-----------------|
2)-----7-9-7-7-7-7-7-------7-7-7-7-7-----|-9-7?-9-7?-9p7------------|
3)-6/8--------------9-7...-----------9-7-|----------------9-7...?-7-|
4)---------------------------------------|-----------------------9--|
5)---------------------------------------|--------------------------|
6)---------------------------------------|--------------------------|

1)-------------------------------------------------------------------|
2)------7-7?------7-7------7-7------9p7--------------1012...-------|
3)-9(11)----9(11)-----9(11)----9(11)----9-7...9p7--7?-9(11)...-7-9-7-|
4)------------------------------------------------9------------------|
5)-------------------------------------------------------------------|
6)-------------------------------------------------------------------|

1)-1012-9-7--------------|--------------------------------|
2)------------7------------|-7h9p7-10-7?-1012-------------|
3)--------------9-7-7------|-7h9p7?-9-7---9(11)-9-7---------|
4)--------------------9...-|------------------------9-9...--|
5)-------------------------|--------------------------------|
6)-------------------------|----------------

Fuente original ATAME [www.atame.org]
Colaborador original: Federico [federnr_la25@hotmail.com]

Fuente: tusacordes.com