a b c d e f g h i j k l m n o p q r s t u v w x y z 0-9

Llevame

Kudai

Gm
D#
D
Am
F
C
			
 En esta cancion tokn dos guitarras aki
estan el de las dos juntas.
La "guitar 1" hac los riff o acords
mientras q la "guitar 2" hac los punteos...
espero q les gut la cancion ta al 99.9 excelente
y 100 completa

Intro: Ak entran a la vez [fijense en el time]

[Guitar 1]
//Gm D# La# D//: x2

[Guitar 2]
E |--------------------------------------------------------------|
B |-------11-10-11--16---10-11-------12--------------------------|
G |-8h9---------------------------10-----10----------------------|
D |--------------------------------------------------------------|
A |--------------------------------------------------------------|
E |--------------------------------------------------------------|

E |--------------------------------------------------------------|
B |-------11-10-11--16--10-15----14------------------------------|
G |-8h9-----------------------10----10---------------------------|
D |--------------------------------------------------------------|
A |--------------------------------------------------------------|
E |--------------------------------------------------------------|

E |--------------------------------------------------------------|
B |-------11-10-11---16---11-12----13----14----15-----15-15h16---|
G |-8h9-------------------------10----10----11----11-------------|
D |--------------------------------------------------------------|
A |--------------------------------------------------------------|
E |--------------------------------------------------------------|

[Aca va solo el sgte arpegio] Solo marca la guitar 2

Mírame,
quien sabe a donde llegare

Tómame,
no hay suelo ya donde caer


[X2]

E |---------------------------------|[x2]
B |---------4-----------------------|
G |-----5-------5-------------------|
D |---6---6---6---6-----------------|
A |-6-------------------------------|
E |---------------------------------|

E |---------------------------------|[x2]
B |---------5-----------------------|
G |-----6-------6-------------------|
D |---7---7---7---7-----------------|
A |-7-------------------------------|
E |---------------------------------|

En la segunda vuelta el segundo arpegio va una vez
Y ahí entra?

[Guitar 1]
Re7

Gm
Ven
     D#      La#
Llévame del dolor
            D       Re7     Gm
que esta oscuro y no oigo tu voz
        D#       La#
solo quiero respirar
        Re7            Gm
que la noche me va a matar


[Guitar 2]
E |---------5-6--------5-6----------|
B |-------4--------6-5--------------|
G |-3-2-3--------6------------------|
D |---------------------------------|
A |---------------------------------|
E |---------------------------------|


[Guitar 1]
La#
Tómame,
                        Gm
Que el mundo se vino a mis pies
La#
Llévame,
                        Re7
Que hoy ya no me quiero esconder

  Gm
Ven
     D#      La#
Llévame del dolor
            D       Re7     Gm
Que esta oscuro y no oigo tu voz
        D#       La#
Solo quiero respirar
        Re7            Gm?  Gm
Que la noche me va a matar

  Gm    D#
Dame un beso
        La#                Re7
Algo que me haga al fin regresar
     Gm         D#       La#
Y llorar en tus brazos al final
             Re7            Gm
Que aun hay tiempo para escapar...


Ak mientras la guitar 1 hac los riff
la guitar 2 marca el punteo

[Guitar 1]
Solo: //Gm D# La# D// -> acompańa hasta q acabe el punteo

[Guitar 2]
E |---------------------------------|
B |---------------------------------|
G |-----------5h6-8h9-8?1-----------|
D |3h4-4-6-8------------------------|
A |---------------------------------|
E |---------------------------------|

E |---------------------------------|
B |---------------------------------|
G |-1-3-5-8-9h11-10-3---------------|
D |---------------------------------|
A |---------------------------------|
E |---------------------------------|

E |---------------------------------|
B |---------------------------------|
G |-----------7h8------6h7----------|
D |-3/3-4-6-7------6-5--------------|
A |---------------------------------|
E |---------------------------------|

E |-----------------------------5-7-12--|
B |-----------------------5-7-8---------|
G |-4-5-4-2-------6-7-6-4---------------|
D |---------2-3-5-----------------------|
A |-------------------------------------|
E |-------------------------------------|


[Guitar 1]
Am  F        C  Mi7
Ven, llévame del dolor
Am  F        C  Mi7
Ven, llévame del dolor?

Nananaaa [Am F C Mi7]

Llévame, llévame, llévame [Am F C Mi7]

Este punteo va de fondo hasta el final de la cancion
Es un poco difícil y rapido
pero si t fijas bien en la melodía
t aseguro q la agarras en one

[Guitar 2]

G|-9-10-9--9-9-10-9-10-9-10--11-10-9-[x2]---|
G|-9-10-9--9-9-10-9-10-9-10--8-7-6--6-5-4h9-|

G|-9-10-9--9-9-10-9-10-9-10--11-10-9---9-10-9-9-9-10-9-10-9-10--12-11-9---|
G|-9-10-9--9-9-10-9-10-9-10--8-7-6--6-5-4h9-----|


Llévame, ven  [Am F C Mi7]? y Am...

asi acaba px esta cancion es recontra xevere
pero cuando la cantan con nico see?...
aun asi ta xevere el grupo ojala les aya gutado mi tab

ahora como lo prometi estan
 toos los punteos y arpegios q faltaban?
no t compliqs es muy sencilla esta cancion

RECOMENDACION: Fijense bien en los "times"
escuchala bien y t daras cuenta q too ta excelent...
thks x apoyar mi tab
[Y][Y]
 

Fuente: tusacordes.com