a b c d e f g h i j k l m n o p q r s t u v w x y z 0-9

Dust In The Wind

Kansas

			
esta cancion esta corregida pero es solo la parte de guitarra espero les guste dejen comentario pes para saber 
si les gusta o no ya pronto tendran los videos publicados en "youtube.con" para ke sepan el sonido 
y el ritmo como va 

dejenme sus comentarios y pidiendo las kanciones que quieren tokar para ponerlas aki y la puedan tokar   ...


KANSAS - DUST IN THE WIND


                                                                                
   C                C7M               C2                C                             
e:-----------------|-----------------|-----------------|-----------------|
B:-1---------1-----|-0---------0-----|-3---------0-----|-1---------1-----|
G:-------0-------0-|-------0-------0-|-------0-------0-|-------0-------0-|           
D:-----2-------2---|-----2-------2---|-----2-------2---|-----2-------2---|
A:-3-------3-------|-3-------3-------|-3-------3-------|-3-------3-------|
E:-----------------|-----------------|-----------------|-----------------|


   Am2               Am4              Am                 Am2                               
e:-----------------|-----------------|-----------------|-----------------|
B:-0---------0-----|-3---------3-----|-1---------1-----|-0---------0-----|
G:-------2-------2-|-------2-------2-|-------2-------2-|-------2-------2-|
D:-----2-------2---|-----2-------2---|-----2-------2---|-----2-------2---|           
A:-0-------0-------|-0-------0-------|-0-------0-------|-0-------0-------|
E:-----------------|-----------------|-----------------|-----------------|



   C2                C                 C7M               C                             
e:-----------------|-----------------|-----------------|-----------------|
B:-3---------3-----|-1---------1-----|-0---------0-----|-3---------3-----|
G:-------0-------0-|-------0-------0-|-------0-------0-|-------0-------0-|
D:-----2-------2---|-----2-------2---|-----2-------2---|-----2-------2---|           
A:-3-------3-------|-3-------3-------|-3-------3-------|-3-------3-------|
E:-----------------|-----------------|-----------------|-----------------|



   Am                Am2               Am4               Am                              
e:-----------------|-----------------|-----------------|-----------------|
B:-1---------1-----|-0---------0-----|-3---------3-----|-1-----------0---|
G:-------2-------2-|-------2-------2-|-------2-------2-|-------2-2-------|           
D:-----2-------2---|-----2-------2---|-----2-------2---|-----2-----------|
A:-0-------0-------|-0-------0-------|-0-------0-------|-0-------0---2---|
E:-----------------|-----------------|-----------------|-----------------|



   C                G/B                Am               Am                             
e:-----------------|-----------------|-----------------|-----------------|
B:-1---------1-----|-3---------3-----|-1---------1-----|-1---------1-----|
G:-------0-------0-|-------0-------0-|-------2-------2-|-------2-------2-|
D:-----2-------2---|-----0-------0---|-----2-------2---|-----2-------2---|           
A:-3-------3-------|-2-------2-------|-0-------0-------|-0-------0-------|
E:-----------------|-----------------|-----------------|-----------------|


   G                 Dm                Am                Am                           
e:-----------------|-1---------1-----|-0---------------|-0---------------|
B:-3---------3-----|-------3-------3-|-1---------1-----|-1-----------0---|
G:-------0-------0-|-----2-------2---|-------2-------2-|-------2-2-------|           
D:-----0-------0---|-0-------0-------|-----2-------2---|-----2-----------|
A:-----------------|-----------------|-0-------0-------|-0-------0---2---|
E:-3-------3-------|-----------------|-----------------|-----------------|



   C                G/B                Am               Am                           
e:-----------------|-----------------|-----------------|-----------------|
B:-1---------1-----|-3---------3-----|-1---------1-----|-1---------1-----|
G:-------0-------0-|-------0-------0-|-------2-------2-|-------2-------2-|
D:-----2-------2---|-----0-------0---|-----2-------2---|-----2-------2---|           
A:-3-------3-------|-2-------2-------|-0-------0-------|-0-------0-------|
E:-----------------|-----------------|-----------------|-----------------|



   G                Dm               AM               Am                               
e:-----------------|-1---------1-----|-0---------------|-0---------------|
B:-3---------3-----|-------3-------3-|-1---------1-----|-1---------1-----|
G:-------0-------0-|-----2-------2---|-------2-------2-|-------2-------2-|
D:-----0-------0---|-0-------0-------|-----2-------2---|-----2-------2---|          
A:-----------------|-----------------|-0-------0-------|-0-------0-------|
E:-3-------3-------|-----------------|-----------------|-----------------|



  D/F"               G                 Am               Am7                                              
e:-----------------|-----------------|-----------------|-----------------|
B:-3---------3-----|-0---------0-----|-1---------1-----|-1---------1-----|
G:-------2---------|-------0---------|-------2---------|-------2---------|          
D:-----0-------0---|-----0-------0---|-----2-------2---|-----2-------2---|
A:-----------------|-----------------|-0-------0-------|-----------------|
E:-2-------2-------|-3-------3-------|-----------------|-3-------3-------|


  D/F"               G                 Am                                                                               
e:-----------------|-----------------|-----------------|-----------------|
B:-3---------3-----|-0---------0-----|-0h1------1------|-0h1-----3-------|
G:-------2---------|-------0---------|------2-------2--|-----------------|           
D:-----0-------0---|-----0-------0---|----2-------2----|-----------------|
A:-----------------|-----------------|-0------0--------|-0-------2-------|
E:-2-------2-------|-3-------3-------|-----------------|-----------------|


   C                G/B                Am                Am                                                                              
e:-----------------|-----------------|-----------------|-----------------|
B:-1---------1-----|-3---------3-----|-1---------1-----|-1---------1-----|
G:-------0-------0-|-------0-------0-|-------2-------2-|-------2-------2-|
D:-----2-------2---|-----0-------0---|-----2-------2---|-----2-------2---|           
A:-3-------3-------|-2-------2-------|-0-------0-------|-0-------0-------|
E:-----------------|-----------------|-----------------|-----------------|


   G                 Dm                Am                Am                           
e:-----------------|-1---------1-----|-----------------|-----------------|
B:-0--------0------|-------3-------3-|-1---------1-----|-1-----------0---|
G:-------0-------0-|-----2-------2---|-------2-------2-|-------2-2-------|           
D:-----0-------0---|-0-------0-------|-----2-------2---|-----2-----------|
A:-----------------|-----------------|-0-------0-------|-0-------0---2---|
E:-3-------3-------|-----------------|-----------------|-----------------|


   C                G/B                Am               Am                             
e:-----------------|-----------------|-----------------|-----------------|
B:-1---------1-----|-3---------3-----|-1---------1-----|-1---------1-----|
G:-------0-------0-|-------0-------0-|-------2-------2-|-------2-------2-|
D:-----2-------2---|-----0-------0---|-----2-------2---|-----2-------2---|           
A:-3-------3-------|-2-------2-------|-0-------0-------|-0-------0-------|
E:-----------------|-----------------|-----------------|-----------------|


   G                Dm               AM               Am                               
e:-----------------|-1---------1-----|-----------------|-----------------|
B:-3---------3-----|-------3-------3-|-1---------1-----|-1---------1-----|
G:-------0-------0-|-----2-------2---|-------2-------2-|-------2-------2-|
D:-----0-------0---|-0-------0-------|-----2-------2---|-----2-------2---|           
A:-----------------|-----------------|-0-------0-------|-0-------0-------|
E:-3-------3-------|-----------------|-----------------|-----------------|


  D/F"               G                 Am               Am7                                              
e:-----------------|-----------------|-----------------|-----------------|
B:-3---------3-----|-0---------0-----|-1---------1-----|-1---------1-----|
G:-------2---------|-------0---------|-------2---------|-------2---------|           
D:-----0-------0---|-----0-----------|-----2-------2---|-----2-------2---|
A:-----------------|-------------2---|-0-------0-------|-----------------|
E:-2-------2-------|-3-------3-------|-----------------|-3-------3-------|


  D/F"               G                 Am               Am2                                              
e:-----------------|-----------------|-----------------|-----------------|
B:-3---------3-----|-0---------0-----|-1---------1-----|-0---------1-----|
G:-------2---------|-------0---------|-------2---------|-------2---------|           
D:-----0-------0---|-----0-----------|-----2-------2---|-----2-------2---|
A:-----------------|-------------2---|-0-------0-------|-0-------0-------|
E:-2-------2-------|-3-------3-------|-----------------|-----------------|


  G/A                                 F/A                                                             
e:-----------------|-----------------|-----------------|-----------------|
B:-3---------3-----|-3---------3-----|-1---------1-----|-1---------1-----|
G:-------4---------|-------4---------|-------2---------|-------2---------|           
D:-----5-------5---|-----5-------5---|-----3-------3---|-----3-------3---|
A:-0-------0-------|-0-------0-------|-0-------0-------|-0-------0-------|
E:-----------------|-----------------|-----------------|-----------------|


  F/A                                 Am2                                                            
e:-----------------|-----------------|-----------------|-----------------|
B:-1---------1-----|-1---------1-----|-0-----1---0-----|-0-----1---0-----|
G:-------2---------|-------1---------|-----------------|-----------------|           
D:-----3-------3---|-----3-------3---|-----2-------2---|-----2-------2---|
A:-0-------0-------|-0-------0-------|-0-------0-------|-0-------0-------|
E:-----------------|-----------------|-----------------|-----------------|


  G/A                                 F/A                                                             
e:-----------------|-----------------|-----------------|-----------------|
B:-3---------3-----|-3---------3-----|-1---------1-----|-1---------1-----|
G:-------4---------|-------4---------|-------2---------|-------2---------|           
D:-----5-------5---|-----5-------5---|-----3-------3---|-----3-------3---|
A:-0-------0-------|-0-------0-------|-0-------0-------|-0-------0-------|
E:-----------------|-----------------|-----------------|-----------------|


  F/A                                 Am2                                                            
e:-----------------|-----------------|-----------------|-----------------|
B:-1---------1-----|-1---------1-----|-0-----1---0-----|-0-----1---0-----|
G:-------2---------|-------1---------|-----------------|-----------------|          
D:-----3-------3---|-----3-------3---|-----2-------2---|-----2-------2---|
A:-0-------0-------|-0-------0-------|-0-------0-------|-0-------0-------|
E:-----------------|-----------------|-----------------|-----------------|

                        
esta parte del violin que acompaña a la guitarra ___ 
esta traducido unikamente para otra guiotarra

Amadd2                        G/A                                             
-||--------------------------|-------------------------------7--8--10-----|-----
-||--5-----------------------|------------------------8--10---------------|-----
-||--------------------------|---7--5--4-----5--7-------------------------|-----
-||--------------------------|--------------------------------------------|-----
-||--------------------------|--------------------------------------------|-----
-||--------------------------|--------------------------------------------|-----
                                                                                

F#11/A                                                                        
----------------------------5--7--8--------7--|---------------------------------
----------------------6--8--------------------|---------------------------------
-5--4--------4--5-----------------------4-----|---------------------------------
-------7--------------------------------------|---------------------------------
----------------------------------------------|---------------------------------
----------------------------------------------|---------------------------------
                                                                                

F6#11/A                                     Amadd2                          
-5--------------7--8--7--5-----5-----------|---------------------------|--------
----------------------------8-----8--5-----|---5-----------------------|--------
----------------------------------------7--|---------------------------|--------
-7--------------------------------------5--|---------------------------|--------
-------------------------------------------|---------------------------|--------
-------------------------------------------|---------------------------|--------
                                                                                

G/A                                                                             
-----------------------------7--8--10-----|-------------------------------------
----------------------8--10---------------|-------------------------------------
-7--5--4-----5--7-------------------------|-------------------------------------
------------------------------------------|-------------------------------------
------------------------------------------|-------------------------------------
------------------------------------------|-------------------------------------
                                                                                

F#11/A                                                                        
----------------------------5--7--8--------7--|---------------------------------
----------------------6--8--------------------|---------------------------------
-5--4--------4--5-----------------------4-----|---------------------------------
-------7--------------------------------------|---------------------------------
----------------------------------------------|---------------------------------
----------------------------------------------|---------------------------------
                                                                                

F6#11/A                                               C          Cmaj7        
-----------------------------------------10--12--13--|---15---------15-----|----
-10--------------12--13--12--10--12--13--------------|---------------------|----
-----------------------------------------------------|---------------------|----
-7---------------------------------------------------|---------------------|----
-----------------------------------------------------|---7----------7------|----
-----------------------------------------------------|---------------------|----
                                                                                

Cadd9                               C                                           
----15--17--15------15-----------------------------------------------|----------
----------------18------18--17--18---17--15--17--15------15----------|----------
-----------------------------------------------------17------17--16--|----------
---------------------------------------------------------------------|----------
----7----------------------------------------------------------------|----------
---------------------------------------------------------------------|----------
                                                                                

Asus2         Asus4                                                             
-------------------------|------------------------------------------------------
-------------------------|------------------------------------------------------
-14------------14--------|------------------------------------------------------
-------------------------|------------------------------------------------------
-7-------------7---------|------------------------------------------------------
-------------------------|------------------------------------------------------
                                                                                

Am                               Asus2                                          
--------------------------------------------------------------17--|-------------
-------------------------15--17-------15--17------15--17--18------|-------------
-14--16--17--14--16--17-----------17----------17------------------|-------------
------------------------------------------------------------------|-------------
----------------------------------7-------------------------------|-------------
------------------------------------------------------------------|-------------
                                                                                

      Cadd9         C                                                           
-------15------------15-----|---------------------------------------------------
----------------------------|---------------------------------------------------
----------------------------|---------------------------------------------------
----------------------------|---------------------------------------------------
---------------------7------|---------------------------------------------------
----------------------------|---------------------------------------------------
                                                                                

Cmaj7                            Cadd9                                          
-15--17--15------15-----------------------------------------------|-------------
-------------18------18--17--18---17--15--17--15------15----------|-------------
--------------------------------------------------17------17--16--|-------------
------------------------------------------------------------------|-------------
------------------------------------------------------------------|-------------
------------------------------------------------------------------|-------------
                                                                                

Am            Asus2   Asus4     Am        G/B                                   
-------------------|-----------------------------||-----------------------------
-------------------|-----------------------------||-----------------------------
-14------------14--|-----------------------------||-----------------------------
-------------------|-----------------------------||-----------------------------
-7-----------------|-----------------------------||-----------------------------
-------------------|-----------------------------||-----------------------------
                                                                                
aki tan las letras por si kieren kantarla

INGLES   

I close my eyes
Only for a moment
And the moments gone
All my dreams
Pass before my eyes a curiosity
Dust in the wind
All we are dust in the wind

Same old song
Just a drop of water
In the endless see
All we do
Crumbles to the ground
Though we refuse to see
Dust in the wind

Now, don´t hang on
Nothing last forever
But the earth and sky
It slips away

And all your money
Won`t another minute buy

Dust in the wind
All we are dust in the wind
Dust in the wind
Dust in the wind

Fuente: tusacordes.com