a b c d e f g h i j k m n o p q r s t x v w y z 0-9

Creo En Ti

Julio Melgar

			
E|-------------------|-------------------|-------------------
B|------------0--2---|-------------3--0--|------------0--2---
G|--------2---0--2---|--------2----2--0--|--------2---0--2---
D|--0-2-4-----0--2---|--0-2-4------0--0--|--0-2-4-----0--2---
A|-------------------|-------------------|-------------------
E------------3-------|-----------2-------|-----------3-------

E|------------------------------|
B|------------3-----------------|
G|--------------0-2h------------|   x2
D|-------------------0-2h-------|
A|-------0-2h-------------0-2h--|
E|--0-2h------------------------|


Bm                 G
Quiero levantar mis manos
         D               A
maravilloso jesus, milagroso Señor
 Bm                         G
llena este lugar de tu presencia
          D                           A
y has descender tu poder a los que estamos aqui
          Bm   A   G                Bm  A  G
//creo en ti   jesus, y en lo que haras en mi//
   D         A
en mi.... en mi

coro


//Recibe
Bm
toda la gloria
G
toda la honra
     D            A
precioso hijo de Dios//


comienza


Bm                 G
Quiero levantar mis manos
         D               A
maravilloso jesus, milagroso Señor
 Bm                         G
llena este lugar de tu presencia
          D                           A
y has descender tu poder a los que estamos aqui
          Bm   A   G                Bm  A  G
//creo en ti   jesus, y en lo que haras en mi//
   D         A
en mi.... en mi

coro


//Recibe
Bm
toda la gloria
G
toda la honra
     D            A
precioso hijo de Dios//

solo

     Bm                                  G                        D   
E ---------------------------------------------------------------------------------
A ---------------------------------------------------------------------------------
D ---------------------------------------------------------------------------------
G -----------------------------------11s7-------------------------7-9-7-9-------
B -----7-------------7-10-7-----------------8-7-7-8-8s10-10------------5s7--
e --------10-9-9*-------------5s7-------------------------------------------------


              A                              Bm                                              G
E -------------------------------------------------------------------------------------
A -------------------------------------------------------------------------------------
D --------------------4----------------------------------------------------------------
G --------------4-2----2s4s2---------------------------------------------------------
B --5-3-2-3-2------------------------7-7--------------10-10-------10---10---10-
e -------------------------------------------10-9-9s12------------7-----7-----7-----


                              D                                                 A
E -------------------------------------------------------------------------------9--------
A ------------------------------------------------------------9-----9-----9-7----7------
D ----------------------------------------9-7-----------9-7----7-----7------------------
G --7s9-7-9-7-9------------------9-7-------7s9----------------------------------------
B ------------------5h7------------------------------------------------------------------
e -------------------------5-5s7----------------------------------------------------------


coro


/////Recibe
Bm
toda la gloria
G
toda la honra
     D            A
precioso hijo de Dios/////<p>Fuente: Tusacordes</p>