a b c d e f g h i j k l m n o p q r s t u v w x y z 0-9

Era En Abril

Juan Carlos Baglietto

			
G                              C                  G
Sabes hermano lo triste que estoy
|-------------------------------------------------------|
|----0------------0---------1----------------0----------|
|-------0-----------0---------0----------------0--------|
|--0------0----0-----0---2-----2--------0-------0-------|
|------------------------3------------------------------|
|3------------3------------------------3----------------|
D                                          C                             G
Se me ha hecho vuelo de trinos y sangre la voz
|------2-----------------2------------0----------0--------------------------------|
|-----------3---------------3------------1----------1-------0-----------0---------|
|----2----------2------2------2-----0-----0---0-----0-------0------------0--------|
|0--------------------0-------------------------------------0----0----0-------0---|
|----------------------------------3-----------3----------------------------------|
|---------------------------------------------------------3----------3------------|
    

Fuente original ATAME [www.atame.org]
Colaborador original: Federico Udrea [diego_2001_ar@hotmail.com]

Fuente: tusacordes.com