a b c d e f g h i j k l m n o p q r s t u v w x y z 0-9

Intro Pueblito Viejo

Jose A. Morales

			
intro

e--------------------------------------------------------
B--1-0----------------0----------------------------------
G-2---2-0------------2-2-0---------------2-0-------------
D--------3---3-2-0--------3-2---2-0-----2---3-2-0--------
A----------------------------------3---------------------
E--------------------------------------------------------

e--------------------------------------------------------
B--------------------------------------------------------
G--------------------------------------------------------
D-0-------------0-2--------------0------0-2-3------------
A--3-2---2-3-2-3--------0-0-0-2-3------------------------
E--------------------------------------------------------

e---------------------------------------------------------
B---------------------------------------------------------
G-2-0----------------0---------------------------------2--
D----3-2-0-----0-2----3-2-0---------0---3-2-0---------2---
A---------3---3------------3-2---2-3---------3-2-0---3----
E---------------------------------------------------------

Fuente: Tusacordes