a b c d e f g h i j k l m n o p q r s t u v w x y z 0-9

Lucia

Joan Manuel Serrat

			
Bueno gente esta es mi primera transcripción espero que les guste y que no tenga demasiados fallos
de todas maneras si encuentras alguno no dudes en escribirme. Uy! se olvidaba esta transcripción se la dedico
a mi profe de guitarra; Hector eres un MÁQUINA. Un beso pa toa andalucía. Un canario que les kiere.

||----------0-| |-2--2--2--0----| |-0--0--0--0-------| |----0----------|
||-3--2--3----| |-------------3-| |-------------3--2-| |-3-----3--2--0-|
||------------| |---------------| |------------------| |---------------|
||------------| |---------------| |------------------| |---------------|
||------------| |---------------| |------------------| |---------------|
||------------| |---------------| |------------------| |---------------|

|----------------------------0-| |-2--2--2--0----| |-0--3--2--0-------|
|-3--2--0-----3--3--3--2--3----| |-------------3-| |-------------3--2-|
|----------3-------------------| |---------------| |------------------|
|------------------------------| |---------------| |------------------|
|------------------------------| |---------------| |------------------|
|------------------------------| |---------------| |------------------|

|---------------| |---------------| |----2--2--7--5-| |-7--5--7--9--10-9--7--5-|
|-3--3--3--2--0-| |-2--2--2--0----| |-0-------------| |------------------------|
|---------------| |-------------3-| |---------------| |------------------------|
|---------------| |---------------| |---------------| |------------------------|
|---------------| |---------------| |---------------| |------------------------|
|---------------| |---------------| |---------------| |------------------------|

|-3--2--------3--2-| |-3--2--------3--2-| |-------2--0----| |----------3--3-|
|-------3--3-------| |-------2--2-------| |-3--0--------3-| |-1--1--1-------|
|------------------| |------------------| |---------------| |---------------|
|------------------| |------------------| |---------------| |---------------|
|------------------| |------------------| |---------------| |---------------|
|------------------| |------------------| |---------------| |---------------|

|-2-----------2--2-| |-1-----------0----| |-------2--2-| |-3--2--3--2--0-|
|----0--0--0-------| |----2--2--2-----3-| |-2----------| |---------------|
|------------------| |------------------| |------------| |---------------|
|------------------| |------------------| |----4-------| |---------------|
|------------------| |------------------| |------------| |---------------|
|------------------| |------------------| |------------| |---------------|

|-2--0-| |-------2--0--2--0--2--0----| |-0----| |----0-----0-----0-------|
|------| |-------------------------3-| |----3-| |-------3-----3-----3--2-|
|------| |---------------------------| |------| |------------------------|
|------| |-4--4----------------------| |------| |-4----------------------|
|------| |---------------------------| |------| |------------------------|
|------| |---------------------------| |------| |------------------------|

|------| |----2--0--2--0--2--0----| |-0----| |-2--7--6--7--6--7--5--3-| |-5-|
|-3--2-| |----------------------3-| |----3-| |------------------------| |---|
|------| |------------------------| |------| |------------------------| |---|
|------| |-4----------------------| |------| |------------------------| |---|
|------| |------------------------| |------| |------------------------| |---|
|------| |------------------------| |------| |------------------------| |---|

Fuente original ATAME [www.atame.org]
Colaborador original: Kevin Ramos [kevinramos@geomundos.com]

Fuente: tusacordes.com