a b c d e f g h i j k l m n o p q r s t u v w x y z 0-9

Tu Bandera

Jesus Adrian Romero

D
A
			
D D                             A A
E|--------------2--------------    |-------------0---------------
B|-------3---------3-----------    |-------2--------2-------------
G|----2------2-----------------    |----2-----2-------------------
D|-0---------------------------    |-2---------------------------


E|-------------2-----------         |-----------3-----------------
B|-------3--------3--------  X2     |------3-------3--------------
G|----4-----4--------------         |----0---0--------------------
D|-4-----------------------         |-0---------------------------





... CREO QUE ESTA BIEN...

Fuente: Tusacordes