a b c d e f g h i j k l m n o p q r s t u v w x y z 0-9

Tienen Tu Color

Jesus Adrian Romero

			
e---------7--8--3-|---------7--8-----|--------------------------
b-----------------|----------------6-|------------------5-------
g-----------------|-------|-------|-------------5--7--7--5--4--5
d----3--|---------|-----0--|---------|---0--------|-------------
a--3----|---------|---3----|---------|-----0--5--8|-------------
E-1-----|---------|--0-----|---------|------------|-------------
bajos              bajos                  bajos


e--------10--8--3-|---------7--8----|--------5--7--8--7--5------
b-----------------|---------------6-|-----------------------5--8
g-----------------|--------|--------|---------------------------
d----3--|---------|----0---|--------|--0--------|---------------
a--3----|---------|--3-----|--------|----0--5--8|---------------
E-1-----|---------|-0------|--------|-----------|--------------- bajos              bajos            bajos



sin bajos


e--5--7--8----|---------7--8-----|--------------------------
b---------8-|----------------6-|---------------5-----------
g-----------|------------------|----------5--7---7--5--4--5



e---------10--8---|--------7--8----|-----------5--7--8--7--5----
b---------------8-|--------------6-|------------------------5--8

Fuente: tusacordes.com