a b c d e f g h i j k l m n o p q r s t u v w x y z 0-9

Preciosa Sangre

Jesus Adrian Romero

			
ESTA CANCION LA GUITARRA ESTA AFINADA EN TONO DE Eb PERO COMO ESTA AQUI
 ES EN E SI LA QUIEREN OIR BIEN COMO ES SOLO AFINEN SU GUITARRA A Eb OK!!

    H-HUMER  /-SLIDE


                  INTRO

e--------7-5-7/9-4-----5-7-7/9-10-7/9-7----
B------5-----------5-7------------------5/7
G--6-7-------------------------------------
D------------------------------------------
A------------------------------------------
E------------------------------------------

             ANTESITO DEL CORO

e------------------------------------------
B------------------------------------------
G-5/6-7-5/6-4------------------------------
D------------------------------------------
A------------------------------------------
E------------------------------------------

                 CORO

e-----------------------------------------------------
B---10-9H10-----------10-9H10-------------------------
G-9---------9-------9---------9-8/9-------9-8/9-------
D-------------11-12-----------------12----------12----
A--------------------------------------12----------12-
E-----------------------------------------------------

              DESPUES DEL CORO

e-5-7/9-4-----5-7-7/9-10-7/9-7-------------
B---------5-7------------------5/7---------
G------------------------------------------
D------------------------------------------
A------------------------------------------
E------------------------------------------

               DESPUES DEL CORO AL FINAL

e------------------------7-9/10-9-7--------
B---------------------10------------10-----
G-9-8-7-9-6-7-8-9-8-9----------------------
D------------------------------------------
A------------------------------------------
E------------------------------------------

Fuente: Tusacordes