a b c d e f g h i j k l m n o p q r s t u v w x y z 0-9

Mi Universo

Jesus Adrian Romero

			

INTRO

e||----------------------------|---------------------|
B||----------------------------|---------------------|
G||--------0--2--2---4--2--0---|---------0--2--2--4--|
D||-----0----------------------|------2--------------|
A||----------------------------|---3-----------------|
E||--3-------------------------|---------------------|

e||----------------------------|-----------------------------|
B||----------------------------|---0--1--3--1?0h1p0-----3----|
G||--------0--2--2---4--2--0---|---------------------2-----2-|
D||-----0----------------------|-----------------------------|
A||----------------------------|-----------------------------|
E||--3-------------------------|-----------------------------|

ESTROFA 1

    Que seas mi universo
                e||----------------------------|
                B||----------------------------|
                G||--------0--2--2---4--2--0---|
                D||-----0----------------------|
                A||----------------------------|
                E||--3-------------------------|

       No quiero darte   sólo un   rato de mi
            e||--------------------------|
            B||--------------------------|
            G||----2-------2--------4----|
            D||----2-------2--------2----|
            A||----3-------3--------3----|
            E||--------------------------|

         tiempo
            e||---------------------------|
            B||---------------------------|
            G||--------0--2--2---4--2--0--|
            D||-----0---------------------|
            A||---------------------------|
            E||--3------------------------|

       No quiero separarte un    día
            e||--------------------------|
            B||---1----1----------1------|
            G||---0----0----------0------|
            D||---2----2----------2------|
            A||--------------------------|
            E||--------------------------|

           solamente
            e||--------------------------|
            B||-----------3--------------|
            G||--------0-----0-----------|
            D||-----4-----------4--------|
            A||--5-----------------5-----|
            E||--------------------------|

ESTROFA 2

    Que seas mi universo
                e||----------------------------|
                B||----------------------------|
                G||--------0--2--2---4--2--0---|
                D||-----0----------------------|
                A||----------------------------|
                E||--3-------------------------|

    No quiero     darte mis  palabras como
            e||--------------------------|
            B||--------------------------|
            G||----2-----2------4--------|
            D||----2-----2------2--------|
            A||----3-----3------3--------|
            E||--------------------------|

                gotas
            e||---------------------------|
            B||---------------------------|
            G||--------0--2--2---4--2--0--|
            D||-----0---------------------|
            A||---------------------------|
            E||--3------------------------|

       Quiero un diluvio de   alabanzas en mi
            e||--------------------------|
            B||-----1----------1---1-----|
            G||-----0----------0---0-----|
            D||-----2----------2---2-----|
            A||--------------------------|
            E||--------------------------|

           boca
            e||--------------------------|
            B||-----------3--------------|
            G||--------0-----0-----------|
            D||-----4-----------4--------|
            A||--5-----------------------|
            E||--------------------------|

CORO

     C/E           D/F#   G
         Que seas mi universo
                       e||----------------------------|
                       B||----------------------------|
                       G||--------0--2--2---4--2--0---|
                       D||-----0----------------------|
                       A||----------------------------|
                       E||--3-------------------------|

G/B           Cadd2       C     D/F#      G
    Que seas todo lo que siento y lo que
               G
              Pienso
            e||---------------------------|
            B||---------------------------|
            G||--------0--2--2---4--2--0--|
            D||-----0---------------------|
            A||---------------------------|
            E||--3------------------------|

G/B          Cadd2        C        G/B  Am7
    Que seas el primer aliento en la mañana
                      Dadd4
    Y la luz en mi ventana.
     C/E          D/F#   G
         Que seas mi universo
                       e||----------------------------|
                       B||----------------------------|
                       G||--------0--2--2---4--2--0---|
                       D||-----0----------------------|
                       A||----------------------------|
                       E||--3-------------------------|

G/B             Cadd2   C
    Que llenes cada uno de mis
                    D/F#   G
                    Pensamientos
                       e||----------------------------|
                       B||----------------------------|
                       G||--------0--2--2---4--2--0---|
                       D||-----0----------------------|
                       A||----------------------------|
                       E||--3-------------------------|

G/B           Cadd2          C         G/B  Am7
    Que tu presencia y tu poder sean mi alimento
                     Dadd4   C
    Oh Jesús es mi deseo.

ESTROFA 3

    Que seas mi universo
                e||----------------------------|
                B||----------------------------|
                G||--------0--2--2---4--2--0---|
                D||-----0----------------------|
                A||----------------------------|
                E||--3-------------------------|

        No quiero darte sólo   parte de mis
            e||--------------------------|
            B||--------------------------|
            G||----2-----2------4--------|
            D||----2-----2------2--------|
            A||----3-----3------3--------|
            E||--------------------------|

                años
            e||---------------------------|
            B||---------------------------|
            G||--------0--2--2---4--2--0--|
            D||-----0---------------------|
            A||---------------------------|
            E||--3------------------------|

        Te quiero dueño  de mi tiempo y de mi
            e||--------------------------|
            B||-----1----1--------1------|
            G||-----0----0--------0------|
            D||-----2----2--------2------|
            A||--------------------------|
            E||--------------------------|

              espacio
            e||--------------------------|
            B||-----------3--------------|
            G||--------0-----0-----------|
            D||-----4-----------4--------|
            A||--5-----------------5-----|
            E||--------------------------|

ESTROFA 4

    Que seas mi universo
                e||----------------------------|
                B||----------------------------|
                G||--------0--2--2---4--2--0---|
                D||-----0----------------------|
                A||----------------------------|
                E||--3-------------------------|

        No quiero hacer mi   voluntad quiero
            e||--------------------------|
            B||--------------------------|
            G||------2-------2-----4-----|
            D||------2-------2-----2-----|
            A||------3-------3-----3-----|
            E||--------------------------|

            agradarte
            e||---------------------------|
            B||---------------------------|
            G||--------0--2--2---4--2--0--|
            D||-----0---------------------|
            A||---------------------------|
            E||--3------------------------|


           Y cada sueño que   hay en   mi quiero
            e||---------------------------------|
            B||-----1----------1-------1---0h1p0|
            G||-----0----------0-------0--------|
            D||-----2----------2-------2--------|
            A||---------------------------------|
            E||---------------------------------|

           entregarte.
            e||--------------------------|
            B||-----------3--------------|
            G||--------0-----0-----------|
            D||-----4-----------4--------|
            A||--5-----------------------|
            E||--------------------------|

        CORO X2

    Que seas mi universo  X3
                e||----------------------------|---------------------|
                B||----------------------------|---------------------|
                G||--------0--2--2---4--2--0---|---------0--2--2--4--|
                D||-----0----------------------|------2--------------|
                A||----------------------------|---3-----------------|
                E||--3-------------------------|---------------------|

FINAL

    Que seas mi universo
                e||----------------------------|---------------|
                B||----------------------------|---------------|
                G||--------0--2--2---4--2--0---|----2--2---4---|
                D||-----0----------------------|----2--2---2---|
                A||----------------------------|----3--3---3---|
                E||--3-------------------------|---------------|


Acordes:
     G   Am7 Dadd4 C/E   D/F#  G/B  Cadd2   C
e |-3-----0-----0-----0-----2-----3-----0-----0|
B |-0-----1-----3-----1-----3-----3-----3-----1|
G |-0-----0-----0-----0-----2-----0-----0-----0|
D |-0-----3-----4-----2-----0-----0-----2-----2|
A |-X-----0-----5-----X-----0-----2-----3-----3|
E |-3-----0-----0-----0-----2-----X-----0-----0|

Fuente: tusacordes.com