a b c d e f g h i j k l m n o p q r s t u v w x y z 0-9

Mi Entorno

Jesus Adrian Romero

Em
F#m
G
C
D
			
 SOLO PONGAN EL CAPO EN EL PRIMER TRASTE OK

El arpegio se cuenta a partir del primer traste con el capo

INTRO:

E --------------------------------------
B -----------3-1-0-----0-0--------------
G ------0-2--------2-0-----0------0-----
D ----0----------------------4s5--2-----
A --------------------------------3-----
E --0-----2----3-------0-----2s3--------

E --------------------------------------
B -----------3-1-0-----0---0------------
G ------0-2--------2-0---0---2----------
D ----0---------------------------------
A --------------------------------------
E --0-----2----3-------0----------------


El arpegio de las estrofas va asi:

E ----------------------------------------
B ----------------------------------------
G --------2---2-4---------2-0---0---------
D ------0---0-----------0-----4-2---------
A ----0---------------0---------3---------
E --0-----2-----3---0---------------------

E ----------------------------------------
B ---------------------------------3------
G --------2---2-4--------0-0-0-------0----
D ------0---0-----------4------4-------4--
A ----0---------------5----------5--------
E --0-----2-----3-------------------------

                                  [SOLO EN LA ESTROFA 2]
E ----------------------------------|----------------
B ----------------------------------|--------3-1-----
G --------2---2-4---------2-0---0---|------0-----0---
D ------0---0-----------0-----4-2---|----2---------2-
A ----0---------------0---------3---|--3-------------
E --0-----2-----3---0---------------|----------------

E ------------------------------------
B -------------------------3----------
G --------2---2-4--------0---0--------
D ------0---0-----------4------4------
A ----0---------------5---------------
E --0-----2-----3---------------------




E --------0-----------2-----3-----2---
B --1-----0---------3---3-----3-------
G --0-----0-------2-------2-----2-----
D --2-----2-----0---------------------
A --3-----2---------------------------
E --------0---------------------------

E --------0-----------0---------0-----
B --1-----0---------3---3-3-------3---
G --0-----0-------2---------2---------
D --2-----2-----0-------------0-------
A --3-----2---------------------------
E --------0---------------------------



Estrofa 1

    Em            F#m     G
 No se donde comienzas tu
    Em         F#m      C
 No se donde termino yo
     Em           F#m      G
 Mi entorno se lleno de ti
            D
 Y mi interior
   Em        F#m       G
 Y mi manera de pensar
   Em        F#m      C
 Y mi manera de sentir
    Em           F#m       G
 Cambiaron al crecer tu amor
           D
 Dentro de Mi 
C              Em                D
 Y nada cambiaria quiero estar asi
C              Em                 D
 Muriendo cada dia para verte en Mi 


**Coro**

G            D               Em
 Llenas mi espacio llenas mi vida
         C               G
 Me iluminaste como el Sol 
             D               Em
 Quiero que crezcas todos los días
          C               D
 Ser un reflejo de tu amor


***INTRO****


Estrofa 2

     Em        F#m      G
 Con el sonido de mi voz
     Em        F#m         C
 El viaje emprenderé por ti
     Em           F#m        G
 Mis pies me llevaran a donde
         D
 Quieras ir
    Em         F#m       G
 Y todo lo que soy señor
     Em        F#m       C
 Mis planes y mi corazón
     Em         F#m      G
 Hoy giran a tu alrededor
            D
 Rendido estoy
C              Em              D
 Y nada cambiaria quiero estar asi
C              Em                D
 Muriendo cada dia para verte en Mi 

//Coro//

//**INTRO**//

          G              D
Eres mi entorno, eres mi vida
        C               G
Me iluminaste como el Sol 


NOTA : EN LA PARTE DE LAS ESTROFAS PARA QUE
SE OIGA MEJOR EL ACOMPAÑAMIENTO DE LA SEGUNDA
GUITARRA SERIA BUENO QUE HAGAN DE ESTA MANERA LOS TERMINOS

     EADGBe

F#m: x442xx
G  : x554xx

 

Fuente: tusacordes.com