a b c d e f g h i j k l m n o p q r s t u v w x y z 0-9

Me Dice Que Me Ama

Jesus Adrian Romero

G
C
Am
D
Em
			
 Intro: G ? C ? Am ? D [Teclado]

                      C      Am            C      D

e|-------10-10----10/12--10-7-8-8/7-------------|
B|-10/12-------12-------------------10-8-----8--|
G|---------------------------------------7/9----|
D|----------------------------------------------|

               G                      C
Me dice que me ama cuando escucho llover,
            G                 C
me dice que ama con un atardecer,
               G     C        Em        D
lo dice sin palabras, con las olas del mar,
                Em                C   D
lo dice en la mañana con mi respirar.

Coro:
                      G             C             G   C  G
     //Me dice que me ama y que conmigo quiere estar,
                     C           Am             D
     me dice que me busca cuando salgo yo a pasear,
                          Em           C            Em
     que ha hecho lo que existe para llamar mi atención,
                        Am          D          G   C  D
     que quiere conquistarme y alegrar mi corazón.       //

Intro:...

               G                   C
Me dice que me ama cuando veo la cruz,
                G                           C
sus manos extendidas así tan grande es su amor,
                G   C       Em        D
lo dicen las heridas de sus manos y pies,
               Em              C   D
me dice que me ama una y otra vez.

Final:

                      C      Am           D

e|-------10-10----10/12--10-7-8-8/7---------------------|
B|-10/12-------12-------------------10-8-10--8-10-8-----|
G|--------------------------------------------------11--|
D|------------------------------------------------------|

C ? Am ? C ? D ? G [Teclado]

 

Fuente: tusacordes.com