a b c d e f g h i j k l m n o p q r s t u v w x y z 0-9

Magicas Princesas

Jesus Adrian Romero

			
Intro:
         D    D/B      D    D/B     D    D/B     D    D/B
e-------2/0----0------2/0----0-----2/0----0-----2/0----0-------
b------3---3---3-----3---3---3----3---3---3----3---3---3-------
g-----2-----0--0----2-----0--0---2-----0--0---2-----0--0-------
D---0-------------0------------0------------0------------------
A------------2-------------2-------------2------------2--------
E--------------------------------------------------------------


RIFF:1
       D       D/B 
e-----0/2------0--0----0--0----
b----3---3----3-3-----3-3------
g---2-----0--0---0---0---0-----  SE REPITE 3 VESES
D--0---------------------------
A-----------2-------2----------
E------------------------------

RIFF:2
   D D/C D/B G
e--2-2---2---3---
b------3--3--3---
g-------2--2-4---
D--0-------------
A----4-2---------
E------------3---

RIFF:3
  D  D/C  D/B   G       D    C
e--2-2---2------3------3/2--0--0-----------
b------3--3----3-3----3---3----1-----------
g-------2--2--4---4--2-----2---0-----------
D--0----------------0----------2-----------
A----4-2-----------------------3-----------
E------------3-----------------3-----------

RIFF:4
       D
e-----0/2-0------
b----3----3------
g---2-----0------  SE REPITE 3 VESES
D--0-------------
A----------------
E----------------



RIFF:2OPCIONAL, Y PARA MI GUSTO SE OYE MEJOR
    
e-------------2--2---3-----
b----3---3---3-3-----3-----
g---2---2---4---4----4-----
D--0---4-------------------
A----------4---------------
E------------------3-------

RIFF:3OPCIONAL

e-------------2--2----3-------3/2--0--0---
b----3---3---3-3-----3-3-----3---3----1---
g---2---2---4---4---4---4---2-----2---0---
D--0---4-------------------0----------2---
A----------4--------------------------3---
E------------------3------------------3---


RIFF:1

D          D/B                       D
dame tus huellas, para usarlas de zapatos.
D        D/B                         D
dame tus dudas, para hacerme una pulsera.
D        D/B                        D
usa mis manos, para hacerte una escalera

RIFF:2

D/C#       Bm         G            D
hasta las nubes, y volar a donde sea.

RIFF:1

D            D/B                    D
miénteme un poco, para mantenerme atento.
D           D/B                          D
hazme una hamaca, con el menguante de la luna.
D       D/B                        D
dame tu risa, para los tiempos en veda.

RIFF:3

D/C#        Bm            G             D
quítate el peso, de los besos que te sobren.
          C
es tan difícil respirar,
       G                           D
el aire en que no estás... es tan difícil. 


coro
C           D/B          F#7         Bm7
Dame tus sueños, para hacerte una diadema.
C           D/B        F#7           G
dame el pasado, para no quitarte el tiempo,
            D          C                        
que lo que te está sobrando,
     Em7          D       
a mí me salva la vida.



Dame tu llanto, para llorarlo contigo.
dame el misterio, de tus ojos cuando duermes.
dame el aire cuando exhalas,
para ver si te respiro.


RIFF:1

Ponle mi nombre, al lunar de tu mejilla.
dile a tu oído, que me escuche cuando miro.
salva mis manos, con el roce de tu espalda.

RIFF:3
Dame el remedio para no curarme nunca.
es que es tan fácil respirar,
el aire cuando estás... siempre es tan fácil. 

coro

dame tus sueños, para hacerte una diadema.
dame el pasado, para no quitarte el tiempo,
que lo que te está sobrando,
a mí me salva la vida.


dame tu llanto, para llorarlo contigo.
dame el misterio, de tus ojos cuando duermes.
dame el aire cuando exhalas,
para ver si te respiro. 

  D         D/B                  D
quítame un beso, póntelo donde prefieras.    
            Bm7         G                   en esta parte va arpegeada,
dame un pretexto para reestrenar mi vida.   pero no pude sacar la tablatura, sorry...  
  D                  G          
dame lo que quieras darme                
    G                D
quítame lo que tu quieras. 


Segundo verso del coro:	

dame tu llanto para llorarlo contigo.
dame el misterio de tus ojos cuando duermes.
dame el aire cuando exhalas
para ver si te respiro.

Sujerencias, saludos o mentadas de madre mandelas a mi correo.

Fuente: tusacordes.com