a b c d e f g h i j k l m n o p q r s t u v w x y z 0-9

Esperame

Jesus Adrian Romero

			


Intro capo en el cuarto traste


 Acordes A-B-C#


e----------3---------------3-------------3----------------------
B--0p1------------0p1-----------0p1----------1---0---1--0-------
G-------0----------------------------------------0---0--0-------
D--3-------------------0-------------2---------------2----------
A-------------------------------0-------------------------------
E-----------------3------------------------------3------0-------

e----------3---------------3-------------3-----0----0-----------
B--0p1------------0p1-----------0p1------------0----1-----------
G----------------------------------------------0----2-----------
D--3----0--------------0-------------2--------------2-----------
A-------------------------------0-------------------0-----------
E-----------------3---------------------------------------------

Fuente: tusacordes.com