a b c d e f g h i j k l m n o p q r s t u v w x y z 0-9

Es Por Tu Gracia

Jesus Adrian Romero

			
INTRO

                                    C#m7
e---7-7-5-5-4-2-0---5-5-4-4-2-0-2/4-----------------------------
B-------------------------------------5-5-4-4-5h4---------------
G---8-8-6-6-4-2-1---6-6-4-4-2-1-2/4---------------4-------------
D-------------------------------------6-6-4-4-------------------
A-----------------0-----------------4---------------------------
E-0-------------------------------------------------------------

  A  A#m5    E
e--------------------0------0-----------------------------------
B-2------2-------0--------0---2-4-------------------------------
G-2----4---------1-2----------2-4-------------------------------
D----2---------2---4--------------------------------------------
A-0-------------------------------------------------------------
E------------0-----0----0---------------------------------------

ESTROFA

  E     A#m5  E     A#m5   C#m7      A         G#m7   F#m7
e--------------------------------------------------------0------
B----0-----2-----0-----2---5--5--5---2--2--2---------------0----
G---1-----4-----1-----4----4--4--4---2--2--2---4------2---2-----
D--2-----2-----2-----2------6--6------2--2-----4--------2-------
A-------0-----------0-------------------------------------------
E-0-----------0--------------------------------4------2---------

  Bsus4     B                   Bsus4   F#m7      C#m7     E/B
e-----------2-------0--0--0-------0--------0--------------------
B--------------4-----0--0--0-------4----------0---5--5--5?-5----
G-4------------2------------------------2----2----4--4--4?-4----
D--4---------4---------3----3----4--------2--------6--6----6----
A-2-----------------------------2--------------------------7----
E-------------------0-------------------2-----------------------

   A       F#m7    E/G#      F#m7     Bsus4   B
e---------------------0---------0-------------2-----------------
B--2--2---------------------------0--------------4--------------
G--2--2----2-------4---4-4---2---2----4----------2--------------
D---2--2---2---------2---2-----2-------4-------4----------------
A-------------------------------------2-------------------------
E----------2-------4---------2----------------------------------

CORO

         G#m7  B/D#   F#m7            A       F#m7   Bsus4
e-0--0-------------------0-----------------------0------0---2---
B-----0--4-----5-----------0---0------2--2----------------4-----
G--------4-----4------2---2----2------2--2----2---2--4----------
D--3------4-----4-------2------2-------2--2-----2-----4--4-4----
A--------6-----6---------------0---------------------2----------
E-0-------------------2--------2--------------2-----------------

         G#m7  B/D#  C#m7     E/B  A      F#m7    Bsus4
e-0--0---------------------------------------0-------0----------
B-----0--4-----5-----5--5--5--5----2--2----------------4--------
G--------4-----4-----4--4--4--4----2--2---2---2---4-------------
D--3------4-----4-----6--6----6-----2?-2----2------4--4---------
A--------6-----6--------------7-------------------2-------------
E-0---------------------------------------2---------------------

         G#m7  B/D#  C#m7     E/B  A      F#m7    Bsus4
e-0--0---------------------------------------0-------0----------
B-----0--4-----5-----5--5--5--5----2--2----------------4--------
G--------4-----4-----4--4--4--4----2--2---2---2---4-------------
D--3------4-----4-----6--6----6-----2?-2----2------4--4---------
A--------6-----6--------------7-------------------2-------------
E-0---------------------------------------2---------------------

  E/G#      C#m7    E/B                        F#m7  G#m7
e--------------------------4-4-2-0-----0--0---------------------
B-----------5--5----5---5-5-------4-7------0---2-----4----------
G-4---4--4--4--4----4----4---------------------2-----4----------
D---2----2---6--6---6-------------------3-------2-----4---------
A-------------------7---4----------------------4-----6----------
E-4------------------------------------0------------------------

CORO

         G#m7  B/D#   F#m7            A       F#m7   Bsus4
e-0--0-------------------0-----------------------0------0---2---
B-----0--4-----5-----------0---0------2--2----------------4-----
G--------4-----4------2---2----2------2--2----2---2--4----------
D--3------4-----4-------2------2-------2--2-----2-----4--4-4----
A--------6-----6---------------0---------------------2----------
E-0-------------------2--------2--------------2-----------------

         G#m7  B/D#  C#m7     E/B  A      F#m7    Bsus4
e-0--0---------------------------------------0-------0----------
B-----0--4-----5-----5--5--5--5----2--2----------------4--------
G--------4-----4-----4--4--4--4----2--2---2---2---4-------------
D--3------4-----4-----6--6----6-----2?-2----2------4--4---------
A--------6-----6--------------7-------------------2-------------
E-0---------------------------------------2---------------------

         G#m7  B/D#  C#m7     E/B  A      F#m7    Bsus4
e-0--0---------------------------------------0-------0----------
B-----0--4-----5-----5--5--5--5----2--2----------------4--------
G--------4-----4-----4--4--4--4----2--2---2---2---4-------------
D--3------4-----4-----6--6----6-----2?-2----2------4--4---------
A--------6-----6--------------7-------------------2-------------
E-0---------------------------------------2---------------------

  E/G#      C#m7    E/B
e--------------------------4-4-2-0--------
B-----------5--5----5---5-5-------4-7-----
G-4---4--4--4--4----4----4----------------
D---2----2---6--6---6---------------------
A-------------------7---4-----------------
E-4---------------------------------------

FINAL
                                     E
e---7-7-5-5-4-2-0---5-5-4-4-2-0---------0------
B-------------------------------4------0-------
G---8-8-6-6-4-2-1---6-6-4-4-2-1-------1--------
D-------------------------------4----2---------
A-----------------0----------------------------
E-0--------------------------------------------

Fuente: Tusacordes