a b c d e f g h i j k l m n o p q r s t u v w x y z 0-9

De Ti Dependo

Jesus Adrian Romero

F#
			
Guitarra Acustica= capo en el 2do traste.

Intro: [Guitarra electrica]

    F#        D#m7       Bm9

e-|-2---1-----2---1-------------------|
B-|--------2---------2---0---2---2/4--|

   C#sus4                             F#

e-|------4--4/6--4-2------4--4/6--4-2-2-|
B-|-2--4-------------2--4---------------|


F#                                 D#m7
Me he vuelto dependiente de tu corazón

y de tu amistad
Bm9                                 C#sus4
me he vuelto dependiente de tu dirección

en mi caminar.
F#                                    D#m7
No hay nada que me llene como lo haces Tú

eres mi diario pan
Bm9                              C#sus4
Tú eres la razón de cada sueño en mí

eres mi verdad.


CORO:

                  F#
De ti depende mi vida
                 D#m7
mis sueños y mi alegría
         E?9
como la lluvia necesita nubes
Bm9             C#sus4
como el río del mar.


Acordes:

                F#

      1    2    3    4    5
e-| |----|-||-|----|----|----|----|
B-| |----|-||-|----|----|----|----|
G-| |----|-||-|-?--|----|----|----|
D-| |----|-||-|----|-?--|----|----|
A-| |----|-||-|----|-?--|----|----|
E-| |----|-||-|----|----|----|----|


               D#m7

      1    2    3    4    5    6     7   8
e-| |----|-||-|----|----|----|----|----|----|
B-| |----|-||-|----|----|----|----|----|----|
G-| |----|-||-|----|----|----|----|----|-?--|
D-| |----|-||-|----|----|----|----|----|-?--|
A-| |----|-||-|----|----|----|-?--|----|----|
E-| |----|-||-|----|----|----|----|----1----|


              Bm9

      1    2    3    4    5    6    7
e-| |----|-||-|----|----|----|----|----|
B-| |----|-||-|----|----|----|----|----|
G-| |----|-||-|----|----|----|----|-?--|
D-| |----|-||-|----|----|----|----|-?--|
A-| |----|-||-|----|----|----|----|----|
E-|X|----|-||-|----|----|----|----|----|



               C#sus4

      1    2    3    4    5    6
e-| |----|-||-|----|----|----|----|
B-| |----|-||-|----|----|----|----|
G-| |----|-||-|----|----|----|-?--|
D-| |----|-||-|----|----|----|-?--|
A-| |----|-||-|----|-?--|----|----|
E-| |----|-||-|----|----|----|----|


               E?9

      1    2    3    4    5
e-| |----|-||-|----|----|----|----|
B-| |----|-||-|----|-?--|----|----|
G-| |----|-||-|----|-?--|----|----|
D-| |----|-||-|----|----|----|----|
A-|X|----|-||-|----|----|----|----|
E-|X|----|-||-|----|----|----|----|


Bueno!!!!!!!!!
estos son los acordes del canto, las lineas en el 2do. traste
son para simular el capo[guitarra acustica],
ya que lo lleva en el segundo traste.

El intermedio de la guitarra electrica, es casi lo mismo que La 
intro por eso no lo puse.
DLB!!

Fuente: Tusacordes