a b c d e f g h i j k l m n o p q r s t u v w x y z 0-9

De Ti Dependo

Jesus Adrian Romero

			
e)|2--1------------------------------|
B)|------2---------------------------|
G)|----------------------------------|x2
D)|----------------------------------|
A)|----------------------------------|
E)|----------------------------------|


e)|----------------4--6---4----2------|
B)|-0--2--4--2--4---------------------|
G)|-----------------------------------|x1
D)|-----------------------------------|
A)|-----------------------------------|
E)|-----------------------------------|


e)|----------------4--6---4----2---2--|
B)|----------2--4---------------------|
G)|-----------------------------------|x1
D)|-----------------------------------|
A)|-----------------------------------|
E)|-----------------------------------|


 Me he vuelto dependiente de tu corazón
 Y de tu amistad
 Me he vuelto dependiente de tu dirección
 En mi caminar
 No hay nada que me llene como lo haces tu
 Eres mi diario pan
 Tu eres la razón de cada sueño en mi
 Eres mi verdad
  Coro:
 De ti depende mi vida
  Mi sueños y mi alegría
  Como la lluvia necesita nubes
  Como el rió del marx2

---------------------------------------
 Me he vuelto dependiente de tu corazón
 Y de tu amistad
 Me he vuelto dependiente de tu dirección
 En mi caminar
 No hay nada que me llene como lo haces tu
 Eres mi diario pan
 Tu eres la razón de cada sueño en mi
 Eres mi verdad
  Coro:
 De ti depende mi vida
  Mi sueños y mi alegría
  Como la lluvia necesita nubes
  Como el rió del marX2


e)|2--1------------------------------|
B)|------2---------------------------|
G)|----------------------------------|x2
D)|----------------------------------|
A)|----------------------------------|
E)|----------------------------------|


e)|----------------4--6---4----2------|
B)|-0--2--4--2--4---------------------|
G)|-----------------------------------|x1
D)|-----------------------------------|
A)|-----------------------------------|
E)|-----------------------------------|



e)|2--1------------------------------|
B)|------2---------------------------|
G)|----------------------------------|x2
D)|----------------------------------|
A)|----------------------------------|
E)|----------------------------------|


e)|----------------4--6---4----2--2---|
B)|-0--2--4--2--4---------------------|
G)|-----------------------------------|x1
D)|-----------------------------------|
A)|-----------------------------------|
E)|-----------------------------------|



 Coro:
 De ti depende mi vida
  Mi sueños y mi alegría
  Como la lluvia necesita nubes
  Como el rió del marx2

FINAL

e)|2--1-------------------------------|
B)|------2----------------------------|
G)|-----------------------------------|x2
D)|-----------------------------------|
A)|-----------------------------------|
E)|-----------------------------------|


e)|----------------4--6---4----2------|
B)|-0--2--4--2--4---------------------|
G)|-----------------------------------|x1
D)|-----------------------------------|
A)|-----------------------------------|
E)|-----------------------------------|



e)|2--1------------------------------|
B)|------2---------------------------|
G)|----------------------------------|x2
D)|----------------------------------|
A)|----------------------------------|
E)|----------------------------------|


e)|----------------4--6---4----2------|
B)|-0--2--4--2--4---------------------|
G)|-----------------------------------|x1
D)|-----------------------------------|
A)|-----------------------------------|
E)|-----------------------------------|



e)|----------------4--6---4----2---2--|
B)|----------2--4---------------------|
G)|-----------------------------------|x1
D)|-----------------------------------|
A)|-----------------------------------|
E)|-----------------------------------|

Fuente: tusacordes.com