a b c d e f g h i j k l m n o p q r s t u v w x y z 0-9

A Sus Pies

Jesus Adrian Romero

Am
			
A sus Pies Am

Intro 1:

 | Am7          |Dm7 | Bº   Bº/D    | Am7 |

e -------8------|----|-7-8-10-------|-----|
B -10-12---8----|----|--------------|-----|
G -----------10-|----|--------10-9--|-----|
D --------------|----|--------------|-----|
A --------------|----|--------------|-----|
E --------------|----|--------------|-----|

 | Fmaj7      | Am7/D   Dm7      | E   |E  ...

e ------------|------------------|-----|----
B ------------|------------------|-----|----
G ------------|-9h10-9-----------|-----|----
D ----9-10-12-|---------12-10-10h|12---|----
A -12---------|------------------|-----|----
E ------------|------------------|-----|----


Verso 1:

 Am9                   A/C#        Dm
    Cuando el mundo te inunda de fatalidad
G              G/B           C
 Y te agobia la vida con su mucho afán
Fadd2        F/A          Dm7
  Y se llena tu alma de preocupación
Bº                           E
  Y se seca la fuente de tu corazón

Verso 2:

Am9               A/C#            Dm7
  Cuando quieras huir porque no puedes más
G                G/B           C
 Porque sólo te sientes entre los demás
Fadd2              F/A           Dm7
  Y no hay más en tus ojos brillo y emoción
Bº                            Esus4           E7
 Y se cierra tu boca porque no hay canción

Pre-Coro:

 Am                        E7/G#
   Puedes sentarte a sus pies
 E7                  Am
   Y de sus manos beber
    Dm7             Bº       E7sus  E7
 La plenitud que tu alma necesita
 Am                       E7/G#
   Puedes sentarte a sus pies
 E7              Am
   Y cada día tener
   Dm7           Bº        E7sus  E7
  Una nueva canción y nueva vida

Coro:

Am7             Dm7     E/G#     E7b9  Am7
 A sus pies hay paz,     gracia y bendición
Fmaj7           Dm7   B7           E
 A sus pies tendrás,  luz y dirección
A         A/C#    Dm  B                E
  La plenitud en  Él    nunca se agotará
  Dm7    Bº    E            G/A  Am9
 Puedes descansar   en su presencia


      EADGBe
Bº    x2323x   a este acorde tbn se le puede llamar Dm/B
               el nombre es Si semidisminuida

Fuente: tusacordes.com