a b c d e f g h i j k l m n o p q r s t u v w x y z 0-9

Enamorame

Jesús Adrián Romero

			
ENAMORAME
Enamoranos dia a dia mas de Ti Seńor, has de mi un odre nuevo

Clave::  s:: Slide  E::MI; A::LA; D::RE; G::SOL

Intro

E|---------------9s5---4-----2--------0---------------------
A|-------------------------------2--------------------------
D|----------------------------------------------------------
G|----------------------------------------------------------

Quiro entregarte a Ti mis sueńos / Tu volutad has en ellos

E|---4---5----------0----/--4-----5--------------------------
A|-------------2---------/--------------2--------------------
D|-----------------------/-----------------------------------
G|-----------------------/-----------------------------------

Mi corazon to te entrego / enamorame de Ti

E|------4---5----4---------/---4----5--------0--------------
A|---4---------------------/-4-----------2------------------
D|-------------------------/--------------------------------
G|-------------------------/--------------------------------

Quiro aprender a escucharte / quiero saber que es amarte

E|---4---5----------0----/--4-----5-------------------------
A|-------------2---------/--------------2-------------------
D|-----------------------/----------------------------------
G|-----------------------/----------------------------------

De Tu verdad yo saciarme / enamorame de Ti Seńor

E|------4---5----4---------/---4----5--------0---------------
A|---4---------------------/-4-----------2-------------------
D|-------------------------/---------------------------------
G|-------------------------/---------------------------------

quedamos en mi esperamos 4 tiempos hacemos como puente MI

Coro
que Tu presencia me inunde / has en mi un odre nuevo

E|---4-----5-----4-----------/---2--------0--------4--------
A|----------------------4----/-----2------------------------
D|---------------------------/------------------------------
G|---------------------------/------------------------------

Cambiame, renuevame  / enamorame / enamorame de Ti Seńor

E|----5---4-----/--2----4-----5-----5-/--2---4----5-------0-
A|------------4-/---------------------/---------------2-----
D|--------------/---------------------/---------------------
G|--------------/---------------------/---------------------


Dios les bendiga, saludos
Roberto Prieto.Fuente: Tus acordes