a b c d e f g h i j k l m n o p q r s t u v w x y z 0-9

Alzad Oh Puertas

Jesús Adrián Romero

			
Bueno esta es mi versión de esta canción!ˇ Bueno nada mas el 
requintillo....Disfrútenlo AtTe:Jorge mTxxx

Alzad oh puertas

   D#m   B - C#  C#    D#m
E --------------------------------------
A --------------------------------------
D -------9-11----9-11-12----------------
G --8-8------------------8--------------
B --------------------------------------
e --------------------------------------

Bueno esto se podría llamar como el requinto
que hace la guitarra eléctrica con distorsionador...
mientras que la electroacústica rasgue las notas que son:
 D#m , B, C# y otra vez D#m

Ese requinto va en los verso “Alzad oh puertas....”

Y lo demas va normal

   D#m   B - C#  C#    D#m
E --------------------------------------
A --------------------------------------
D -------9-11----9-11-12----------------
G --8-8------------------8--------------
B --------------------------------------
e --------------------------------------
      Esto dos veces
   D#m   B - C#  C#    D#m                      Esto dos veces
E --------------------------------------
A --------------------------------------
D -------9--*--11-12--*--9-11-12--------
G --8-8-------------8----------8--------
B --------------------------------------
e --------------------------------------

Esta es una variación que se hace a lo ultimo
escúchenlo bien y donde esta el asterisco *
se hace rápido esos movimientos..
ojalá le sirva para tocarla donde tengan que tocarla!!

Ojalá se escuche chida la rola cuando la toquen...
pónganle distorsionador y se va a escuchar musho mejor...

Bueno me despido..saludos a toda la banda de coatza...

AtTe :mTxxx

“Algún día ya no nos verán”Fuente: Tus acordes