a b c d e f g h i j k m n o p q r s t x v w y z 0-9

Eres Hermosa

James Blunt

C
G
Am
F
A
			
Es en español 
capo en el 3er  traste
intro

C-G-Am-F / x2 al paralelo de

e|------------------------------|------------------------------|
B|---1-0-1----1-0-1-3--1-0-1----|---1-0-1----1-0-1-3--1-0-1----|
G|-0--------0-------------------|-0--------0-------------------|
D|---------------------------2-3|---------------------------2-3|
A|------------------------------|------------------------------|
E|------------------------------|------------------------------|

                
C
vida brillante
G
 es puro amor 
Am
pero vi un angel
F
 me cautivo
C
es suerte en el metro 
    G
con otro hombre me mire 
  A 
y no dejare un sueño pues
F
que puedo hacer


F                 G  C
, que hermoza eres , que ermoza eres ,
F              G C
que ermoza eres tu 


F          G         
yo te encontré
C        Am  
fue sin querer
 F          G       Am 
 ahora no se lo que are
        F     G       C
pues con tigo no estaré


F                 G  C
, que hermoza eres , que ermoza eres ,
F              G C
que ermoza eres tu 




e|------------------------------|------------------------------|
B|---1-0-1----1-0-1-3--1-0-1----|---1-0-1----1-0-1-3--1-0-1----|
G|-0--------0-------------------|-0--------0-------------------|
D|---------------------------2-3|---------------------------2-3|
A|------------------------------|------------------------------|
E|------------------------------|------------------------------|<p>Fuente: Tusacordes</p>