a b c d e f g h i j k m n o p q r s t x v w y z 0-9

Te Lo Pido Por Favor

Jaguares

			
Intro:

 0:18
G|------------------------------------------------------|
D|------------------------------------------------------|
A|----------------5--5-5----------5--5-5----------5-5...|
E|3--3-3--3--3-3----------3--3-3----------5--5-5--------|

Verso
Donde estes hoy y 
  0:36
  siempre....
G|---------------------------------------------------|
D|---------------------------------------------------|
A|----------------5--5-5--2--2-2---------------2--2-2|
E|0--0-0--5--5-5------------------0--0-0--1--0-------|

 0:50
 vaya......
G|-----------------------------------------------------|
D|-----------------------------------------------------|
A|----------------5--5-5--2--2-2---------------2-2-2///|
E|0--0-0--5--5-5------------------0--0-0--1--0---------|

 1:03
 cuidar..esta parte se toca un poco mas rapido
G|--------------------------------------------------|
D|--------------------------------------------------| X2
A|--------------------------5--5-5-5--5--2--2-2-2--2|
E|0--0-0-0--0--5--5-5-5--5--------------------------|
 
 
 vida?...  
 1:21                 
G|----------------------------------|
D|----------------------------------|
A|----------------2--2-2--2-2-2///--|
E|0--0-0--1--1-1--------------------|

 1:30
 nunca...
G|--------------------------------------------------|
D|--------------------------------------------------| 
A|--------------------------5--5-5-5--5--2--2-2-2--2|
E|0--0-0-0--0--5--5-5-5--5--------------------------|

 1:39
 Solo de la armonica
G|-----------------------------------------------|
D|-----------------------------------------------|
A|----------------5--5-5--2--2-2-----------------|
E|0--0-0--5--5-5------------------0--0-0--1--1-1-|

G|-------------------|
D|-------------------|
A|-2--2-2--2-2-2-2///|
E|-------------------|
 
 2:00
 Guiar...
G|--------------------------------------------------|
D|--------------------------------------------------| X2
A|--------------------------5--5-5-5--5--2--2-2-2--2|
E|0--0-0-0--0--5--5-5-5--5--------------------------|


 2:18
vida?...  
 1:21                 
G|----------------------------------|
D|----------------------------------|
A|----------------2--2-2--2-2-2///--|
E|0--0-0--1--1-1--------------------|

 2:27
 nunca...
G|--------------------------------------------------|
D|--------------------------------------------------|X2
A|--------------------------5--5-5-5--5--2--2-2-2--2|
E|0--0-0-0--0--5--5-5-5--5--------------------------|

 2:47
Punteado
G|-----|
D|-----| 
A|-----|
E|1-0--|
 
 2:49
 nunca
G|-------------------------|
D|-------------------------|
A|-------------------------|
E|0--0-0-0--0--5--5-5-5--5-|


 2:56
 favor
G|-------------------------|
D|-------------------------|
A|5--5-5-5--5--3--3-3-3--3-|
E|-------------------------|

G|--------------------------------------------------|
D|--------------------------------------------------| 
A|2--2-2-2--2---------------------------5--5-5-5--5-|
E|------------0--0-0-0--0--5--5-5-5--5--------------|

               Punteado ***Se deja la nota sonando
G|------------|---------------|
D|------------|---------------| 
A|------------|-3***2***5***--|
E|2--2-2-2--2-|---------------|
 
Eso es todo si tienen dudas, aclaraciones, o comentaros
escribanme: flea_z@hotmail.com, slovaky@hotmail.com

Fuente original ATAME [www.atame.org]<br>Colaborador original: Huidos
[flea_z@hotmail.com]<p>Fuente: tusacordes.com</p>