a b c d e f g h i j k l m n o p q r s t u v w x y z 0-9

Nunca Quise

Intoxicados

			
intro
-------------------------------
-------------------------------
-2acompaña a la bateria------
-------------------------------         NUNCA QUISE


nunca kise...nadie como vos
------------------------------
--------------2--2-2----------
-0--0-0-----------------------
------------------------------

por eso...  dudar
------------2--2-2------------
-4--4-4-----------------------
------------------------------
------------------------------

si seremos... nos separaron
---------------0--0-0---------
-2--2-2-----------------------
------------------------------
------------------------------

y nosotros sin saberlo nos...
------------------------------
-0--0-0--------------0--0-0---
------------------------------
------------------------------

sigue todo igual



para odiar hay ke kerer
------------------------------
------------0--0--0--0--------
0--0--2--2--------------------
------------------------------

para destruir hay ke hacer
------------------------------
------------0--0--0--0--------
0--0--2--2--------------------
------------------------------

y estoy orgulloso de kererte romper, la cabeza contra la pared
----------------------0-0-0-------------------0-0-0-0-0-0-0------------
-----------0-0-0------------------0-0-0-0------------------------------
0-0-2-2---------------------------------------------------------2-2-2-2
-----------------------------------------------------------------------


SOLO 1ra parte
--------------------------0--0
------------0-------------
--0----2------------------
--------------------------

    2da parte
------------------------------
--------2--0--------------------
--0--0--------------------------
------------------------------

   3ra parte
----------------------0-0-0-------------------0-0-0-0-0-0-0------------
-----------0-0-0------------------0-0-0-0------------------------------
0-0-2-2---------------------------------------------------------2-2-2-2
-----------------------------------------------------------------------

se repite todo el solo


i despues es todo igual a: para odiar ai ke kerer...bla bla 3 veces


i termina con el mismo solo tocar lo mismo

Fuente: tusacordes.com