a b c d e f g h i j k l m n o p q r s t u v w x y z 0-9

Deshacer El Mundo

Heroes Del Silencio

			
G||------------------|--------------------------|--------------------------|
D||------------------|--------------------------|--------------------------|
A||------------------|--1--1--1--0--1--3--1--0--|--1--1--1--0--1--3--1--0--|
E||------------------|--------------------------|--------------------------|


                                                      
--------------------------|--------------------------|
--------------------------|--------------------------|
--1--1--1--0--1--3--1--0--|--1--1--1--0--1--3--1--0--|
--------------------------|--------------------------|


                                                      
--------------------------|--------------------------|
--------------------------|--------------------------|
--1--1--1--0--1--3--1--0--|--1--1--1--0--1--3--1--0--|
--------------------------|--------------------------|


                                                      
--------------------------|--------------------------|
--------------------------|--------------------------|
--1--1--1--0--1--3--1--0--|--1--1--1--0--1--3--1--0--|
--------------------------|--------------------------|


                                                      
--------------------------|--------------------------|
--------------------------|--------------------------|
--1--1--1--0--1--3--1--0--|--1--1--1--0--1--3--1--0--|
--------------------------|--------------------------|


                                                      
--------------------------|--------------------------|
--------------------------|--------------------------|
--1--1--1--0--1--3--1--0--|--1--1--1--0--1--3--1--0--|
--------------------------|--------------------------|


                                                      
--------------------------|--------------------------|
--------------------------|--------------------------|
--1--1--1--0--1--3--1--0--|--1--1--1--0--1--3--1--0--|
--------------------------|--------------------------|


                                                      
--------------------------|--------------------------|
--------------------------|--------------------------|
--1--1--1--0--1--3--1--0--|--1--1--1--0--1--3--1--0--|
--------------------------|--------------------------|


                                                      
--------------------------|--------------------------|
--------------------------|--------------------------|
--1--1--1--0--1--3--1--0--|--1--1--1--0--1--3--1--0--|
--------------------------|--------------------------|


                                                      
--------------------------|--------------------------|
--------------------------|--------------------------|
--1--1--1--0--1--3--1--0--|--1--1--1--0--1--3--1--0--|
--------------------------|--------------------------|


                                                      
--------------------------|--------------------------|
--------------------------|--------------------------|
--1--1--1--0--1--3--1--0--|--1--1--1--0--1--3--1--0--|
--------------------------|--------------------------|


                                                      
--------------------------|--------------------------|
--------------------------|--------------------------|
--1--1--1--0--1--3--1--0--|--1--1--1--0--1--3--1--0--|
--------------------------|--------------------------|


                                                      
--------------------------|--------------------------|
--------------------------|--------------------------|
--1--1--1--0--1--3--1--0--|--1--1--1--0--1--3--1--0--|
--------------------------|--------------------------|


                                                      
--------------------------|--------------------------|
--------------------------|--------------------------|
--1--1--1--0--1--3--1--0--|--1--1--1--0--1--3--1--0--|
--------------------------|--------------------------|


                                                      
--------------------------|--------------------------|
--------------------------|--------------------------|
--1--1--1--0--1--3--1--0--|--1--1--1--0--1--3--1--0--|
--------------------------|--------------------------|


                                                      
--------------------------|--------------------------|
--------------------------|--------------------------|
--1--1--1--0--1--3--1--0--|--1--1--1--0--1--3--1--0--|
--------------------------|--------------------------|


                                                      
--------------------------|--------------------------|
--------------------------|--------------------------|
--1--1--1--0--1--3--1--0--|--1--1--1--0--1--3--1--0--|
--------------------------|--------------------------|


                                                      
--------------------------|--------------------------|
--------------------------|--------------------------|
--1--1--1--0--1--3--1--0--|--1--1--1--0--1--3--1--0--|
--------------------------|--------------------------|


                                                      
--------------------------|--------------------------|
--------------------------|--------------------------|
--1--1--1--0--1--3--1--0--|--1--1--1--0--1--3--1--0--|
--------------------------|--------------------------|


                                                      
--------------------------|--------------------------|
--------------------------|--------------------------|
--1--1--1--0--1--3--1--0--|--1--1--1--0--1--3--1--0--|
--------------------------|--------------------------|


                                                      
--------------------------|--------------------------|
--------------------------|--------------------------|
--1--1--1--0--1--3--1--0--|--1--1--1--0--1--3--1--0--|
--------------------------|--------------------------|


                                                      
--------------------------|--------------------------|
--------------------------|--------------------------|
--1--1--1--0--1--3--1--0--|--1--1--1--0--1--3--1--0--|
--------------------------|--------------------------|


                                                      
--------------------------|--------------------------|
--------------------------|--------------------------|
--1--1--1--0--1--3--1--0--|--1--1--1--0--1--3--1--0--|
--------------------------|--------------------------|


                                                      
--------------------------|--------------------------|
--------------------------|--------------------------|
--1--1--1--0--1--3--1--0--|--1--1--1--0--1--3--1--0--|
--------------------------|--------------------------|


                                                      
--------------------------|--------------------------|
--------------------------|--------------------------|
--1--1--1--0--1--3--1--0--|--1--1--1--0--1--3--1--0--|
--------------------------|--------------------------|


                                                      
--------------------------|--------------------------|
--------------------------|--------------------------|
--1--1--1--0--1--3--1--0--|--1--1--1--0--1--3--1--0--|
--------------------------|--------------------------|


                                                      
--------------------------|--------------------------|
--------------------------|--------------------------|
--1--1--1--0--1--3--1--0--|--1--1--1--0--1--3--1--0--|
--------------------------|--------------------------|


                                                      
--------------------------|--------------------------|
--------------------------|--------------------------|
--1--1--1--0--1--3--1--0--|--1--1--1--0--1--3--1--0--|
--------------------------|--------------------------|


                                                      
--------------------------|--------------------------|
--------------------------|--------------------------|
--1--1--1--0--1--3--1--0--|--1--1--1--0--1--3--1--0--|
--------------------------|--------------------------|


                                                      
--------------------------|--------------------------|
--------------------------|--------------------------|
--1--1--1--0--1--3--1--0--|--1--1--1--0--1--3--1--0--|
--------------------------|--------------------------|


                                                      
--------------------------|--------------------------|
--------------------------|--------------------------|
--1--1--1--0--1--3--1--0--|--1--1--1--0--1--3--1--0--|
--------------------------|--------------------------|


                                                      
--------------------------|--------------------------|
--------------------------|--------------------------|
--1--1--1--0--1--3--1--0--|--1--1--1--0--1--3--1--0--|
--------------------------|--------------------------|


                                                      
--------------------------|--------------------------|
--------------------------|--------------------------|
--1--1--1--0--1--3--1--0--|--1--1--1--0--1--3--1--0--|
--------------------------|--------------------------|


                                                      
--------------------------|--------------------------|
--------------------------|--------------------------|
--1--1--1--0--1--3--1--0--|--1--1--1--0--1--3--1--0--|
--------------------------|--------------------------|


                                                      
--------------------------|--------------------------|
--------------------------|--------------------------|
--1--1--1--0--1--3--1--0--|--1--1--1--0--1--3--1--0--|
--------------------------|--------------------------|


                                                      
--------------------------|--------------------------|
--------------------------|--------------------------|
--1--1--1--0--1--3--1--0--|--1--1--1--0--1--3--1--0--|
--------------------------|--------------------------|


                                                      
--------------------------|--------------------------|
--------------------------|--------------------------|
--1--1--1--0--1--3--1--0--|--1--1--1--0--1--3--1--0--|
--------------------------|--------------------------|


                                                      
--------------------------|--------------------------|
--------------------------|--------------------------|
--1--1--1--0--1--3--1--0--|--1--1--1--0--1--3--1--0--|
--------------------------|--------------------------|


                                                      
--------------------------|--------------------------|
--------------------------|--------------------------|
--1--1--1--0--1--3--1--0--|--1--1--1--0--1--3--1--0--|
--------------------------|--------------------------|


                                                      
--------------------------|--------------------------|
--------------------------|--------------------------|
--1--1--1--0--1--3--1--0--|--1--1--1--0--1--3--1--0--|
--------------------------|--------------------------|


                                                      
--------------------------|--------------------------|
--------------------------|--------------------------|
--1--1--1--0--1--3--1--0--|--1--1--1--0--1--3--1--0--|
--------------------------|--------------------------|


                                                      
--------------------------|--------------------------|
--------------------------|--------------------------|
--1--1--1--0--1--3--1--0--|--1--1--1--0--1--3--1--0--|
--------------------------|--------------------------|


                                                      
--------------------------|--------------------------|
--------------------------|--------------------------|
--1--1--1--0--1--3--1--0--|--1--1--1--0--1--3--1--0--|
--------------------------|--------------------------|


                                                      
--------------------------|--------------------------|
--------------------------|--------------------------|
--1--1--1--0--1--3--1--0--|--1--1--1--0--1--3--1--0--|
--------------------------|--------------------------|


                                                      
--------------------------|--------------------------|
--------------------------|--------------------------|
--1--1--1--0--1--3--1--0--|--1--1--1--0--1--3--1--0--|
--------------------------|--------------------------|


                                                      
--------------------------|--------------------------|
--------------------------|--------------------------|
--1--1--1--0--1--3--1--0--|--1--1--1--0--1--3--1--0--|
--------------------------|--------------------------|


                                                      
--------------------------|--------------------------|
--------------------------|--------------------------|
--1--1--1--0--1--3--1--0--|--1--1--1--0--1--3--1--0--|
--------------------------|--------------------------|


                                                                            
--------------------------|--------------------------|---------------------|
--------------------------|--------------------------|--3------2--------0--|
--0--0--0--0--0--0--0--0--|--1--1--1--1--1--1--1--1--|---------------------|
--------------------------|--------------------------|---------------------|


                                                             
--------------------|--------------------|------------------|
-----------------0--|------------0----0--|------------------|
--------3-----------|--------------------|------------------|
--------------------|--------------------|------------------|


                                                              
---------------------|--------------------|------------------|
--0------------------|--------------------|------------------|
---------1--------3--|--------0--------3--|------------------|
---------------------|--------------------|------------------|


                                                                      
--------------------------|---------------------|--------------------|
--------------------------|--3------2--------0--|-----------------0--|
--3--3--3--3--3--3--3--3--|---------------------|--------3-----------|
--------------------------|---------------------|--------------------|


                                                              
--------------------|------------------|---------------------|
------------0----0--|------------------|--0------------------|
--------------------|------------------|---------1--------3--|
--------------------|------------------|---------------------|


                                                            
--------------------|------------------|-------------------|
--------------------|------------------|-------------------|
--------0--------3--|------------------|--3----------------|
--------------------|------------------|-------------------|


                                                                
---------------------|--------------------|--------------------|
--3------2--------0--|-----------------0--|------------0----0--|
---------------------|--------3-----------|--------------------|
---------------------|--------------------|--------------------|


                                                              
------------------|---------------------|--------------------|
------------------|--0------------------|--------------------|
------------------|---------1--------3--|--------0--------3--|
------------------|---------------------|--------------------|


                                                                  
------------------|-------------------|--------------------------|
------------------|-------------------|--------------------------|
------------------|--3----------------|--3--3--3--3--3--3--3--3--|
------------------|-------------------|--------------------------|


                                                                                
--------------------------|--------------------------|-------------------------|
--------------------------|--------------------------|-------------------------|
--3--3--3--3--3--3--3--3--|--3--3--3--3--3--3--3--3--|--3--1--0----------------|
--------------------------|--------------------------|-----------3--1--1--0----|


                                                      
--------------------------|--------------------------|
--------------------------|--------------------------|
-----------0--1--1--1--1--|--1--1--1--1--1--1--1--3--|
--0--1--1-----------------|--------------------------|


                                                      
--------------------------|--------------------------|
--0--0--0--0--0--0--0--0--|--2--2--2--2--2--2--2--2--|
--------------------------|--------------------------|
--------------------------|--------------------------|


                                                      
--------------------------|--------------------------|
--0--0--0--0--0--0--0--0--|--------------------------|
--------------------------|--3--3--3--3--3--3--3--3--|
--------------------------|--------------------------|


                                                      
--------------------------|--------------------------|
--------------------------|--------------------------|
--3--3--3--3--3--3--3--3--|--3--3--3--3--3--3--3--3--|
--------------------------|--------------------------|


                                                      
--------------------------|--------------------------|
--------------------------|--------------------------|
--1--1--1--1--1--1--1--1--|--1--1--1--1--1--1--1--1--|
--------------------------|--------------------------|


                                                      
--------------------------|--------------------------|
--------------------------|--------------------------|
--1--1--1--1--1--1--1--1--|--1--1--1--1--1--1--1--1--|
--------------------------|--------------------------|


                                                      
--------------------------|--------------------------|
--------------------------|--------------------------|
--3--3--3--3--3--3--3--3--|--3--3--3--3--3--3--3--3--|
--------------------------|--------------------------|


                                                      
--------------------------|--------------------------|
--------------------------|--------------------------|
--3--3--3--3--3--3--3--3--|--3--3--3--3--3--3--3--3--|
--------------------------|--------------------------|


                                                      
--------------------------|--------------------------|
--------------------------|--------------------------|
--1--1--1--1--1--1--1--1--|--1--1--1--1--1--1--1--1--|
--------------------------|--------------------------|


                                                      
--------------------------|--------------------------|
--------------------------|--------------------------|
--1--1--1--1--1--1--1--1--|--1--1--1--1--1--1--1--1--|
--------------------------|--------------------------|


                                                      
--------------------------|--------------------------|
--------------------------|--------------------------|
--1--1--1--1--1--1--1--1--|--1--1--1--1--1--1--1--1--|
--------------------------|--------------------------|


                                                      
--------------------------|--------------------------|
--------------------------|--------------------------|
--1--1--1--1--1--1--1--1--|--1--1--1--1--1--1--1--1--|
--------------------------|--------------------------|


                                                      
--------------------------|--------------------------|
--------------------------|--------------------------|
--1--1--1--0--1--3--1--0--|--1--1--1--0--1--3--1--0--|
--------------------------|--------------------------|


                                                      
--------------------------|--------------------------|
--------------------------|--------------------------|
--1--1--1--0--1--3--1--0--|--1--1--1--0--1--3--1--0--|
--------------------------|--------------------------|


                                                      
--------------------------|--------------------------|
--------------------------|--------------------------|
--1--1--1--0--1--3--1--0--|--1--1--1--0--1--3--1--0--|
--------------------------|--------------------------|


                                                      
--------------------------|--------------------------|
--------------------------|--------------------------|
--1--1--1--0--1--3--1--0--|--1--1--1--0--1--3--1--0--|
--------------------------|--------------------------|


                                                      
--------------------------|--------------------------|
--------------------------|--------------------------|
--1--1--1--0--1--3--1--0--|--1--1--1--0--1--3--1--0--|
--------------------------|--------------------------|


                                                      
--------------------------|--------------------------|
--------------------------|--------------------------|
--1--1--1--0--1--3--1--0--|--1--1--1--0--1--3--1--0--|
--------------------------|--------------------------|


                                                      
--------------------------|--------------------------|
--------------------------|--------------------------|
--1--1--1--0--1--3--1--0--|--1--1--1--0--1--3--1--0--|
--------------------------|--------------------------|


                                                      
--------------------------|--------------------------|
--------------------------|--------------------------|
--1--1--1--1--1--1--1--1--|--1--1--1--1--1--1--1--1--|
--------------------------|--------------------------|


                                                                          
--------------------------|--------------------------|-------------------|
--------------------------|--------------------------|-------------------|
--1--1--1--1--1--1--1--1--|--3--3--3--3--3--3--3--3--|--0----------------|
--------------------------|--------------------------|-------------------|


                                                                             
------------------|------------------|------------------|------------------||
------------------|------------------|------------------|------------------||
------------------|------------------|------------------|------------------||
------------------|------------------|------------------|------------------||

Fuente original ATAME [www.atame.org]
Colaborador original: Julio Cesar Serrano [sannxs@hotmail.com]

Fuente: tusacordes.com