a b c d e f g h i j k l m n o p q r s t u v w x y z 0-9

Decadencia

Heroes Del Silencio

			
QUISIERA MORIR COMO KURT COBAIN DE SENTIMIENTO...



C||----44----44----44----44--|----44----44----44----44--|
C||--------------------------|--------------------------|
C||--------------------------|--------------------------|
C||--------------------------|--------------------------|
C||--------------------------|--------------------------|
C||--------------------------|--------------------------|



----44----44----44----44--|----44----44----44----44--|--43----------------|
--------------------------|--------------------------|--49----------------|
--------------------------|--------------------------|--36----------------|
--------------------------|--------------------------|--------------------|
--------------------------|--------------------------|--------------------|
--------------------------|--------------------------|--------------------|



--43---------------45-43-|--36-------36--36-36-36--36-36--|--46----------------|
--49---------------------|--------------------------------|--36----------------|
--36---------------------|--------------------------------|--------------------|
-------------------------|--------------------------------|--------------------|
-------------------------|--------------------------------|--------------------|
-------------------------|--------------------------------|--------------------|



--51--51--51--51--51--51--51--51--|--51--51--51--51--51--51--51--51--|
--36--36--36--36--36--36--36--36--|--36--36--36--36--36--36--36--36--|
----------------------------------|----------------------------------|
----------------------------------|----------------------------------|
----------------------------------|----------------------------------|
----------------------------------|----------------------------------|



--51--51--51--51--51--51--51--51--|
--36--36--36--36--36--36--36--36--|
----------------------------------|
----------------------------------|
----------------------------------|
----------------------------------|



--51--51--51--51--51--36--38-38-38-38-38-38-38-|
--36--36--36--36--36--51-----------------------|
-----------------------------------------------|
-----------------------------------------------|
-----------------------------------------------|
-----------------------------------------------|



--36--51--36--51--36--51--36--51--|--36--51--36--51--36--51--36--51-51-|
------38------38------38------38--|------38------38------38------38-38-|
----------------------------------|------------------------------------|
----------------------------------|------------------------------------|
----------------------------------|------------------------------------|
----------------------------------|------------------------------------|



--36--51--36--51--36--51--36--51--|
------38------38------38------38--|
----------------------------------|
----------------------------------|
----------------------------------|
----------------------------------|



--36--51--36--51--36--51--38-38-38-38-38-38-38-38-|
------38------38------38--------------------------|
--------------------------------------------------|
--------------------------------------------------|
--------------------------------------------------|
--------------------------------------------------|



--36--51--36--51--36--51--36--51--|--36--51--36--51--36--51--36--51--|
------38------38------38------38--|------38------38------38------38--|
----------------------------------|----------------------------------|
----------------------------------|----------------------------------|
----------------------------------|----------------------------------|
----------------------------------|----------------------------------|



--36--51--36--51--36--51--36--51--|--36--51--36--51--36--51--36--51-51-51-|
------38------38------38------38--|------38------38------38------38-38-38-|
----------------------------------|---------------------------------------|
----------------------------------|---------------------------------------|
----------------------------------|---------------------------------------|
----------------------------------|---------------------------------------|



--36--51--36--51--36--51--36--51--|--36--51--36--51--51--51--38--38-38-38-|
------38------38------38------38--|------38------38--38--38---------------|
----------------------------------|---------------------------------------|
----------------------------------|---------------------------------------|
----------------------------------|---------------------------------------|
----------------------------------|---------------------------------------|



--36--36--36--36--36--36--36--36--|
--51--51--51--51--51--51--51--51--|
----------------------------------|
----------------------------------|
----------------------------------|
----------------------------------|



--51--51--51--51--36--51-51-38-38-38-38-38-38-38-38-|
--36--36--36--36--51--38-38-------------------------|
----------------------------------------------------|
----------------------------------------------------|
----------------------------------------------------|
----------------------------------------------------|



--36--51--36--51--36--51--36--51--|--57--51--36--51--36--51--36--38-38-38-|
------38------38------38------38--|--36--38------38------38---------------|
----------------------------------|---------------------------------------|
----------------------------------|---------------------------------------|
----------------------------------|---------------------------------------|
----------------------------------|---------------------------------------|



--36--51--36--51--36--51--36--51--|--36--51--36--51--36--51--36--51-51-|
------38------38------38------38--|------38------38------38------38-38-|
----------------------------------|------------------------------------|
----------------------------------|------------------------------------|
----------------------------------|------------------------------------|
----------------------------------|------------------------------------|



--36--51--36--51--36--51--36--51--|
------38------38------38------38--|
----------------------------------|
----------------------------------|
----------------------------------|
----------------------------------|



--36--51--36--51--36--51--38-38-38-38-38-38-38-38-|
------38------38------38--------------------------|
--------------------------------------------------|
--------------------------------------------------|
--------------------------------------------------|
--------------------------------------------------|



--36--51--36--51--36--51--36--51--|--36--51--36--51--36--51--36--51--|
------38------38------38------38--|------38------38------38------38--|
----------------------------------|----------------------------------|
----------------------------------|----------------------------------|
----------------------------------|----------------------------------|
----------------------------------|----------------------------------|



--36--51--36--51--36--51--36--51--|--36--51--36--51--36--51--36--51-51-51-|
------38------38------38------38--|------38------38------38------38-38-38-|
----------------------------------|---------------------------------------|
----------------------------------|---------------------------------------|
----------------------------------|---------------------------------------|
----------------------------------|---------------------------------------|



--36--51--36--51--36--51--36--51--|--36--51--36--51--51--51--38--38-38-38-|
------38------38------38------38--|------38------38--38--38---------------|
----------------------------------|---------------------------------------|
----------------------------------|---------------------------------------|
----------------------------------|---------------------------------------|
----------------------------------|---------------------------------------|



--36--36--36--36--36--36--36--36--|
--51--51--51--51--51--51--51--51--|
----------------------------------|
----------------------------------|
----------------------------------|
----------------------------------|



--51--51--51--51--36--51-51-38-38-38-38-38-38-38-38-|
--36--36--36--36--51--38-38-------------------------|
----------------------------------------------------|
----------------------------------------------------|
----------------------------------------------------|
----------------------------------------------------|



--36--51--36--51--36--51--36--51--|--57--51--36--51--36--51--36--38-38-38-|
------38------38------38------38--|--36--38------38------38---------------|
----------------------------------|---------------------------------------|
----------------------------------|---------------------------------------|
----------------------------------|---------------------------------------|
----------------------------------|---------------------------------------|



--36--51--36--51--36--51--36--51--|--36--51--36--51--36--51--36--51--|
------38------38------38------38--|------38------38------38------38--|
----------------------------------|----------------------------------|
----------------------------------|----------------------------------|
----------------------------------|----------------------------------|
----------------------------------|----------------------------------|



--36--51--36--51--36--51--36--51--|--36--51--36--51--57--------------49--|
------38------38------38------38--|------38------38--36--------------36--|
----------------------------------|----------------------------------38--|
----------------------------------|--------------------------------------|
----------------------------------|--------------------------------------|
----------------------------------|--------------------------------------|



--36--51--36--51--36--51--36--51--|--36--51--36--51--36--51--36--51--|
------38------38------38------38--|------38------38------38------38--|
----------------------------------|----------------------------------|
----------------------------------|----------------------------------|
----------------------------------|----------------------------------|
----------------------------------|----------------------------------|



--36--51--36--51--36--51--36--51--|--36--51--36--51--36--51--51--51--|
------38------38------38------38--|------38------38------38--38--38--|
----------------------------------|----------------------------------|
----------------------------------|----------------------------------|
----------------------------------|----------------------------------|
----------------------------------|----------------------------------|



--36--51--36--51--36--51--36--51--|--36--51--36--51--36--51--36--51--|
------38------38------38------38--|------38------38------38------38--|
----------------------------------|----------------------------------|
----------------------------------|----------------------------------|
----------------------------------|----------------------------------|
----------------------------------|----------------------------------|



--51--51--51--51--51--51--51--51--|--51--51--51--51--51--51--51--51--|
--36--36--36--36--36--36--36--36--|--36--36--36--36--36--36--36--36--|
----------------------------------|----------------------------------|
----------------------------------|----------------------------------|
----------------------------------|----------------------------------|
----------------------------------|----------------------------------|



--51--51--51--51--51--51--51--51--|--51--51--51--51--51--51--51--51--|
--36--36--36--36--36--36--36--36--|--36--36--36--36--36--36--36--36--|
----------------------------------|----------------------------------|
----------------------------------|----------------------------------|
----------------------------------|----------------------------------|
----------------------------------|----------------------------------|



--51--51--51--51--51--51--51--51--|--51--51--51--51--51--51--51--51--|
--36--36--36--36--36--36--36--36--|--36--36--36--36--36--36--36--36--|
----------------------------------|----------------------------------|
----------------------------------|----------------------------------|
----------------------------------|----------------------------------|
----------------------------------|----------------------------------|



--51--51--51--51--51--51--51--51--|--51--51--51--51--51--51--51--51--|
--36--36--36--36--36--36--36--36--|--36--36--36--36--36--36--36--36--|
----------------------------------|----------------------------------|
----------------------------------|----------------------------------|
----------------------------------|----------------------------------|
----------------------------------|----------------------------------|



--51--51--51--51--51--51--51--51--|--51--51--51--51--51--51--51--51--|
--36--36--36--36--36--36--36--36--|--36--36--36--36--36--36--36--36--|
----------------------------------|----------------------------------|
----------------------------------|----------------------------------|
----------------------------------|----------------------------------|
----------------------------------|----------------------------------|



--51--51--51--51--51--51--51--51--|--51--51--51--51--51--51--51--51--|
--36--36--36--36--36--36--36--36--|--36--36--36--36--36--36--36--36--|
----------------------------------|----------------------------------|
----------------------------------|----------------------------------|
----------------------------------|----------------------------------|
----------------------------------|----------------------------------|



--51--51--51--51--51--51--51--51--|--51--51--51--51--51--51--51--51--|
--36--36--36--36--36--36--36--36--|--36--36--36--36--36--36--36--36--|
----------------------------------|----------------------------------|
----------------------------------|----------------------------------|
----------------------------------|----------------------------------|
----------------------------------|----------------------------------|



--51--51--51--51--51--51--51--51--|
--36--36--36--36--36--36--36--36--|
----------------------------------|
----------------------------------|
----------------------------------|
----------------------------------|



--51--51--51--51--51--51--38-38-38-38-38-38-38-|
--36--36--36--36--36--36-----------------------|
-----------------------------------------------|
-----------------------------------------------|
-----------------------------------------------|
-----------------------------------------------|



--36--51--36--51--36--51--36--51--|--36--51--36--51--36--51--36--51--|
------38------38------38------38--|------38------38------38------38--|
----------------------------------|----------------------------------|
----------------------------------|----------------------------------|
----------------------------------|----------------------------------|
----------------------------------|----------------------------------|



--36--51--36--51--36--51--36--51--|--57--51--36--51--36--51--36--38-38-38-38-|
------38------38------38------38--|--36--38------38------38------------------|
----------------------------------|------------------------------------------|
----------------------------------|------------------------------------------|
----------------------------------|------------------------------------------|
----------------------------------|------------------------------------------|



--36--51--36--51--36--51--36--51--|--36--51--36--51--36--51--36--51-51-|
------38------38------38------38--|------38------38------38------38-38-|
----------------------------------|------------------------------------|
----------------------------------|------------------------------------|
----------------------------------|------------------------------------|
----------------------------------|------------------------------------|



--36--51--36--51--36--51--36--51--|
------38------38------38------38--|
----------------------------------|
----------------------------------|
----------------------------------|
----------------------------------|



--36--51--36--51--36--51--38-38-38-38-38-38-38-38-|
------38------38------38--------------------------|
--------------------------------------------------|
--------------------------------------------------|
--------------------------------------------------|
--------------------------------------------------|



--36--51--36--51--36--51--36--51--|--36--51--36--51--36--51--36--51--|
------38------38------38------38--|------38------38------38------38--|
----------------------------------|----------------------------------|
----------------------------------|----------------------------------|
----------------------------------|----------------------------------|
----------------------------------|----------------------------------|



--36--51--36--51--36--51--36--51--|--36--51--36--51--36--51--36--51--|
------38------38------38------38--|------38------38------38------38--|
----------------------------------|----------------------------------|
----------------------------------|----------------------------------|
----------------------------------|----------------------------------|
----------------------------------|----------------------------------|



--57--51--36--51--36--51--36--51--|--57--51--36--51--36--51--36--51--|
--36--38------38------38------38--|--36--38------38------38------38--|
----------------------------------|----------------------------------|
----------------------------------|----------------------------------|
----------------------------------|----------------------------------|
----------------------------------|----------------------------------|



--36--51--36--51--36--51--36--51--|--36--51--36--51--57--------|
------38------38------38------38--|------38------38--36--------|
----------------------------------|----------------------------|
----------------------------------|----------------------------|
----------------------------------|----------------------------|
----------------------------------|----------------------------|



------------------|-----45-43-41------------||
------------------|-------------------------||
------------------|-------------------------||
------------------|-------------------------||
------------------|-------------------------||
------------------|-------------------------||

Fuente original ATAME [www.atame.org]
Colaborador original: c|-|risti/- [acorde_49@hotmail.com]

Fuente: tusacordes.com