a b c d e f g h i j k m n o p q r s t x v w y z 0-9

Apuesta Al Rock & Roll

Heroes Del Silencio

			
Apuesta por el rock and roll
----------------------------
Heroes del Silencio


Em                        G     
Ya no puedo darte el corazón
  Em                   G
Iré donde quieran mis botas
        D                               Em
Y si quieres que te diga qué hay que hacer
      G                  A      B7
Te diré que apuestes por mi derrota

Quitate la ropa, asi esta bien
No dejes nada por hacer
Si has venido a comprarme largate
Si vas a venir conmigo agarrate

Larguémonos chica hacia el mar
no hay amanecer en esta ciudad
Y no sé si naci para correr
pero quizas se que naci para apostar

Sé que ya nada va a ocurrir
Pero ahora estoy contra las cuerdas
Y no veo ni una forma de salir
Pero voy a apostar fuerte mientras pueda

[solo]

Guitarra 1
|---------------------------------------------------------
|---------------3---------------------------3---3----5-3--
|-------0--0-4----42-0-------------0-2/4----4-----------
|---------2----------------2-0-2-0-2----------------------
|---5/7---------------------------------------------------
|---------------------------------------------------------
                   

|----------------------------------------------------------
|-----3---3-/-5-5-------8---8-10/1110-8--10-8---8-10/12-
|---4---4-------------9---9----------------------9---------
|-x-----------------x--------------------------------------
|----------------------------------------------------------
|----------------------------------------------------------


|--10-----10-------------------------------------------
|------12------121110--8----11-10--8-10--8----8------
|--------------------------------------------9----97--
|------------------------------------------------------
|------------------------------------------------------
|------------------------------------------------------


|-------------------------------------12--------------12--------12--
|-------8---8 10/1110-8----8-1012----12--10-/-15----15-15/17-
|--7-9---9----------------9----------------------------------------
|-------------------------------------------------------------------
|-------------------------------------------------------------------
|-------------------------------------------------------------------


|--------------------------------------------------
|-13-15-12--13--12-13-10-12-8-10-7-8-5-7-3-5-1-3-0-
|--------------------------------------------------
|--------------------------------------------------
|--------------------------------------------------
|--------------------------------------------------



Guitarra 2
|---7-------------------------------------------------------------
|---7-8-7--------10/12--1210--8-----10/12-8----10------/12-
|---7-----9-7-7----------------------9-7------------9----7-9------
|-----------------------------------------------------------------
|-----------------------------------------------------------------
|-----------------------------------------------------------------

|-----------------------------------------------------------------------------
|----------------------------------------8---10---8/10--------8--10/12-10/12--
|------7---97------------7-7/9--------9--------------------9-----------------
|--------9------------5/7-----------10-------------------10-------------------
|--5/7-----------5/7----------------------------------------------------------
|-----------------------------------------------------------------------------

|-------------------------------------------12----------------------------
|--15/17-12-12-------------------------12------15-12--------------------
|-----------------1614--12----14/16---------------14/1614---128--
|-------------------------------------------------------------------------
|-------------------------------------------------------------------------
|-------------------------------------------------------------------------


|------------------------------------------------------15----14----12--12-
|------------------------------------------------1512----12----12-12--12-
|-8-12-8-------------------12------12------12/14--------------------------
|----------------------12--12--14------14---------------------------------
|-------------------14----------------------------------------------------
|-------------------------------------------------------------------------



Larguémonos chica hacia el mar
no hay amanecer en esta ciudad
Y no sé si naci para correr
pero quizas se que naci para apostar

Ya no puedo darte el corazón
Perdi mi apuesta por el Rockn Roll
Es la deuda que tengo que pagar
Y ya no tiene sentido abandonar
Y ya no tiene sentido abandonar
No late el corazón.


10/12 = Slide up
1210 = Slide down
10/1210 = bend & release
1210 = pre-bend & release

Fuente original ATAME [www.atame.org]<br>Colaborador original: Marcelo Manfredi
[mrmojorisin_2000@hotmail.com]<p>Fuente: tusacordes.com</p>