a b c d e f g h i j k l m n o p q r s t u v w x y z 0-9

Otro Dia Para Ser

Hermetica

			
Intro:

G-------------------------------------------------------
D---------5-4---4-2-----------------------5-4-----------
A-5s7-5h7-----5-----2-2-0h2-0-----5s7-5h7-----5-3-------
E-----------------------------3-5-----------------5-3-2-

Desnudar el sin razón...

G------------------------------------
D------------------------------------
A-7-----7---7---7--7---7---7---7--7--
E-0---0--------------0---0---0-------

Y que respiraste ayer...

G---------------------------------------------------
D---------------------------------------------------
A-0--0--3-2------5h7--0--00--3-2---3--0-1-2---------
E-----------3--0-----------------3----------5-3-2-0-

Verso: Ser guardianes....

G-----------------------------------
D-----------------------------------
A-------------------------------2-3-
E-2-3-2-0-2-3-2-0-2-3-2-0-2-3-2-----x4

Estribillo: Vender, comprar...

G-------------------------------------------
D-------------------------------------------
A-------------------------------------------
E-0--2-3--2-0--2-3--2--0---0--2-3--2-0--2-3-

G----------------------------------
D----------------------------------
A----------------------------2-3---
E-0000000-000000-2-0000000-0-----3-

Verso: Culpable o inocente...

Estribillo: Vender, comprar...

Intervalo:

G--------------------------------------------------------------------
D--------------------------------------------------------------------
A----------------------------2-3-------------------------------2-3-5-
E-0000000-000000-2-0000000-0-----3--0000000-000000-2-0000000-0-------x2

Solo de guitarra:

G----------------------------
D----------------------------
A----------------------------
E-0-00-2-3--2-0-2-3-2-2------x4

Verso: Derrame de combustible...

Estribillo: Vender, comprar... x2

Final:

G----------------------------------
D----------------------------------
A----------------------------2-3---
E-0000000-000000-2-0000000-0-----3-

Fuente original ATAME [www.atame.org]
Colaborador original: Alejandro Wasil [alewasil@hotmail.com]

Fuente: tusacordes.com