a b c d e f g h i j k m n o p q r s t x v w y z 0-9

Raiz

Gustavo Cerati

			
Acordes
    Fm  Cm  A#m  C#m D#m  
 6---8---8---6---9---6---    
 5---9---8---6---9---7--- 
 4---10--8---6---9---8---
 3---10--10--8---11--8---
 2---8---10--8---11--6---
 1---x---8---6---9---x---
 
 

Intro: Fm x24               Cm x6
E------8----------    E-----X------       
B------9----------    B-----X------        
G------10---------    G-----X------  
D------10---------    D-----X------
A------8----------    A-----10-----
E------X----------    E-----8------

       (Fm-Cm-A#m---Fm-A#m-Fm)

Fm    Cm       A#m
Canto bajo relieves


Fm         A#m    Fm
nave tierra, sigo tu voz


Fm    Cm      A#m
bailo brotado de ilusion


Fm           A#m     Fm 
un sueno tibio para los dos

       
       (Fm-Cm-A#m---Fm-A#m-Fm)

Fm              Cm
que otra cosa es un arbol


A#m
mas que libertad?


Fm             A#m   Fm
si te abrazo es para sentir


***Coro***

A#m                C#m
que a nuestro amor nunca podran 

fm         Cm   D#m        A#m             
sacarlo de raiz sacarlo de raiz...   

         Cm x6 como en el intro

         (Fm-Cm-A#m---Fm-A#m-Fm)

***Coro se repite***

Fuente original ATAME [www.atame.org]<br>Colaborador original: Claudio Giovanni
[Claudio610@aol.com]<p>Fuente: tusacordes.com</p>