a b c d e f g h i j k l m n o p q r s t u v w x y z 0-9

Sweet Child O Mine

Guns N' Roses

			
Bueno hola a todos y aquí como se los prometí esta la canción sweet child o'mine by Guns N' Roses. Esta es la primera canción que subo y bueno, espero que les guste.

Así que primero les daré algunas sugerencias para que entiendan mejor la canción:

Les voy a explicar mas o menos los símbolos que aparecerán en la canción para aquellos que no los conocen no estoy seguro si son los nombres verdaderos de los símbolos pero usemos estos por esta vez

-h = hammer-on, p = pull-off  y / = slide creo yo son practicamente lo mismo consisten en iniciar en una nota y mover el dedo hasta la siguiente de la misma cuerda. Ejemplo:

e---3p5-5h7-8/7/8--7/5--|  simplemente toquen en una nota y se                        
                           deslizan hasta la siguiente 

-b = bend y r = release consisten en iniciar en una nota en cualquier traste de una cuerda y en el caso del bend se levanta o baja la cuerda en ese mismo traste hasta conseguir el tono de la nota dada, y para el release se inicia con la nota previamente elevada y luego se pone la cuerda en su lugar de origen y tono original. Ejemplo: 

G---12b13-8r6--|  inicio en traste doce y levanto la cuerda con tal de que suene como si fuera el traste trece, toco en el traste 6 con la cuerda previamente levantada o bajada hasta que deje de sonar como traste 8 y vuelva a su tono original.

-x = muted string y ~ = vibrato el muted string x es que durante un acorde cuando aparescan estos simbolos en todas las cuerdas se le da un golpe a estas con tal de callar el sonido y el vibrato ~ es como si fueras a hacer un bend pero mueves la cuerda de arriba abajo haciendo que tenga unas desnivelaciones de tono muy leves, es decir, la mueves un poquito arriba y luego abajo y sucesivamente. Ejemplo:

e-----------------|  Golpean las cuerdas para que dejen de sonar  
B-----------------|  y luego se toca la nota moviendola de arriba  
G-----------------|  hacia abajo levemente.
D---7---7-X-------|
A---7---7-X-7~----|
E---5-5-5-X----7~-|

Disculpen si me extendi mucho pero solo quiero que los que no conocen mucho el tema aprendan bien y disfruten la cancion.
Si es necesari hago segunda parte xD.

Ahora si, empecemos:

INTRO: Guitarra 1

e---------------15----14------------------15----14----|
B------15------------------------15-------------------|
G---------14-12----14----14---------14-12----14----14-|
D---12------------------------12----------------------|
A-----------------------------------------------------|
E-----------------------------------------------------|

e---------------15----14------------------15----14----|
B------15------------------------15-------------------|
G---------14-12----14----14---------14-12----14----14-|
D---14------------------------14----------------------|
A-----------------------------------------------------|
E-----------------------------------------------------|

e---------------15----14------------------15----14----|
B------15------------------------15-------------------|
G---12----14-12----14----14---12----14-12----14----14-|
D-----------------------------------------------------|
A-----------------------------------------------------|
E-----------------------------------------------------|

e---------------15----14------------------15----14----|
B------15------------------------15-------------------|
G---------14-12----14----14---------14-12----14----14-|
D---12------------------------12----------------------|
A-----------------------------------------------------|
E-----------------------------------------------------|

Lo anterior se toca 3 veces y luego esto:

e---12----------12----14----15----14----12--------|
B---------15-----------------------------------15-|
G------14----14----14----14----14----14----14--14-|
D-------------------------------------------------|
A-------------------------------------------------|
E-------------------------------------------------|

INTRO: Guitarra 2
Les voy a dar 2 opciones, escojan la que les suene mejor

1- Esta es un poco mas parecida pero con algunas fallas

e---------------------------------------------------------------
B---------------------------------------------------------------
G---------------------------------------------------------------
D---0h4-4---5-7-9p7-5-4----5p4---5p4---5p4--5p4-----5----5------
A---------5-------------5------5-----5-----5------5----5--------
E---------------------------------------------------------------

e---2-2-2-2-2-2-2-2-3p2---2--|
B---3-3-3-3-3-3-3-3-----3-3--|
G---2-2-2-2-2-2-2-2-----2-2--|
D---0-0-0-0-0-0-0-0-------0--|
A----------------------------|
E----------------------------|

2-Esta es un poco menos fiel a la canción original pero creo que es mas fácil cogerla y ponerle el ritmo de la canción, esta es la que recomiendo yo:

Antes de que se toque por segunda vez el intro se toca esto y de ahí se va con lo demás

e-------------------2-2-2-2-2-2-2-2--|
B-----------3-3-3-3-3-3-3-3-3-3-3-3--|
G---2-2-2-2-2-2-2-2-2-2-2-2-2-2-2-2--|
D---0-0-0-0-0-0-0-0-0-0-0-0-0-0-0-0--|
A------------------------------------|
E------------------------------------|

fíjense en los espacios para medir tiempos o usen la canción de referencia, recuerden que no es la original pero es un poco parecida al menos

e---2--3p2----0---0----------3---3--3---3-----------------------
B---3------3--1---1-3p1---1--3---3--3---3-----------------------
G---2------2--0-0-0-----0----0-0-0--0-0-0-----------------------
D---0---------2-2-2----------0-0-0--0-0-0-----------------------
A-------------3-3------------2-2-2--2-2-2-----------------------
E----------------------------3-3-3--3-3-3-----------------------

e---2-2-2-2-2-2-2-2-3p2---2--|
B---3-3-3-3-3-3-3-3-----3-3--|
G---2-2-2-2-2-2-2-2-----2-2--|
D---0-0-0-0-0-0-0-0-------0--|
A----------------------------|
E----------------------------|

Luego que hayan tocado cualquiera de las 2 opciones tocan esta que va para la tercera vez que se toque el intro:

e---2-x-2-2--2-2-3p2---2---2----0---0---------------------------
B---3-x-3-3--3-3-------3---3----1---1--1-1-3p1---1---1----------
G---2-x-2-2--2-2-----2-2-2-2-2--0-0-0--0-0-----0-----0----------
D---0-x-0-0--0-0-----0---0---0--2-2-2--2-2---------2-2-2--------
A-------------------------------3-3----------------3---3--------
E---------------------------------------------------------------

e---3-x-------------------------2-x-2-2--2-2-3p2---2---2----|
B---3-x-3-3-x-3-3-x-3-3----3----3-x-3-3--3-3-------3---3----|
G---0-x-0-0-x-0-0-x-0-0----0----2-x-2-2--2-2-----2-2-2-2-2--|
D---0-x-0-0-x-0-0-x-0-0--0-0-0--0-x-0-0--0-0-----0---0---0--|
A---2-x------------------2---2------------------------------|
E---3-x------------------3---3------------------------------|

VERSO: Guitarra 1-2

Aquí ya es la canción en si, pondré la letra sobre el punteo y los acordes de la segunda guitarra encima:

   D
   She's got a smile that it seems to me
e---10--------------------------------|
B---10--------------------------------|
G---11--------------------------------|
D---12--------------------------------|
A-------------------------------------|
E-------------------------------------|

   C
   Reminds me of childhood memories
e---8---------------------10p8--------|
B---8--------------------------8------|
G---9---------------------------------|
D---10--------------------------------|
A-------------------------------------|
E-------------------------------------|
        
         G                                            D
   Where everything was a fresh  as the bright blue sky
e---3---------------------3---3--------------------------2--|
B---3-----------------------3--------------------------3----|
G---0------------------------------------------------2------|
D---0----------------------------------------------0--------|
A---2-------------------------------------------------------|
E---3-------------------------------------------------------|

En estas partes se supone que cada verso pertenece a la linea de la canción cantada pero no se apresuren por tocarlo todo antes de que inicie la siguiente linea, ya que las ultimas dos notas de cada uno de los punteos termina en la linea siguiente, de nuevo, usen la canción como guía.

 D
 Now and then when i see her face
e---------0-----2-------3-2-0----|
B-----3-----3-----3---3-------3--|
G-------2-----2-----2------------|
D---0----------------------------|
A--------------------------------|
E--------------------------------|
    
    C
She takes me away to that special place 
e---------------0----------------|
B---------3-------3-----3--------|
G-----0-----0-------0-----0---0--|
D-------0-----0-------0-----0----|
A---3----------------------------|
E--------------------------------|

           G                                            D
And if i stare too long   I'd probably break down and cry
e-------------------------0------|
B--------3------3-------------3--|
G----------0------0---------0----|
D------------0------0------------|
A---0h2--------------------------|
E--------------------------------|

e---------2-3-2-----2--------|
B-------3---------3---3------|
G-----2---------2-------2----|
D---0---------------------0--|
A----------------------------|
E----------------------------|

CORO: Guitarra 2

   Ohh! Oooohh! Sweet child o' mine
e-------------------------------------|
B-------------------------------------|
G---2-X-2-X-4-5-X-5-2-7------7-----7--|
D---2-X-2-X-4-5-X-5-2-7------7-----7--|
A---0-X-0-X-2-3-X-3-0-5--5-5-5-5-5-5--|
E-------------------------------------|

   Ohh! Oooohh! Sweet love of mine
e-------------------------------------|
B-------------------------------------|
G---2-X-2--X-4-5-X-5--2-7-------------|
D---2-X-2--X-4-5-X-5--2-7-------------|
A---0-X-0--X-2-3-X-3--0-5-------------|
E-------------------------------------|

CORO: Guitarra 1

No pondré letra ya q no vale la pena y es muy fácil cogerle el tiempo a esto.

e------9------10----9--------------13/12----10------------------
B--------10------10---10-----13---------------------------------
G-----------9-------------------12-------12----12---------------
D---11--------------------10------------------------------------
A---------------------------------------------------------------
E---------------------------------------------------------------

e---------------15----14------------------15----14----|
B------15------------------------15-------------------|
G---------14-12----14----14---------14-12----14----14-|
D---12------------------------12----------------------|
A-----------------------------------------------------|
E-----------------------------------------------------|

e------9------10----9--------------13/12----10---------|
B--------10------10---10-----13-------------------15~--|
G-----------9-------------------12-------12----12-14~--|
D---11--------------------10---------------------------|
A------------------------------------------------------|
E------------------------------------------------------|

PUNTEO SOLO: Guitarra 1-2

1-2 Porque pondré el punteo y encima las notas que se tocan para acompañar, el ritmo o lo inventan o tocan al inicio de cada nota abajo-abajo/arriba-abajo/arriba-abajo/arriba.

    D                   C9
e--------------------------------------------|
B--------------------------------------------|
G---14/12-11~-14/12-11~-14/12-----14/12------|
D-----------------------------14~-------14~--|
A--------------------------------------------|
E--------------------------------------------|
    G                                    D
e------------------------------------------|
B--------------------------15-17r15--------|
G---14/12~-16r14-12-14b16------------------|
D-----------------------------------14b16--|
A------------------------------------------|
E------------------------------------------|

Los versos solo cambian en la letra y el coro es el mismo, por lo cual no los copiare.

PUNTEO SOLO: Guitarra 2

    D                   C9 
e--------------------------------------------|
B--------------------------------------------|
G---14/12-11~-14/12-11~-14/12-----14/12------|
D-----------------------------14~-------14~--|
A--------------------------------------------|
E--------------------------------------------|

    G                       D
e------------------------------------------|
B--------------------------------15--------|
G---14/12~-14/12~-12r11----11b12----12r11--|
D-----------------------12-----------------|
A------------------------------------------|
E------------------------------------------|

    D                            C9
e-----------------------------------------------|
B----------------------------15-15/13-13-15/17~-|
G---14/12-11~-14/12-11-14/16--------------------|
D-----------------------------------------------|
A-----------------------------------------------|
E-----------------------------------------------|

                        G                    
e----------------------------------------------|
B---17-17/15-15/13-13r12-----------------------|
G------------------------12----16r14-12-14b16--|
D---------------------------12-----------------|
A----------------------------------------------|
E----------------------------------------------|

                 D
e---------------------17~--|
B---15-15b17r15-17b19------|
G--------------------------|
D--------------------------|
A--------------------------|
E--------------------------|

CORO: 

   Ohh! Oooohh! Sweet child o' mine
e------------------------------------------|
B-------------------------9r7--------------|
G---2-X-2--X-4-5-X-5--2-7-----7------------|
D---2-X-2--X-4-5-X-5--2-7-------7/5/4------|
A---0-X-0--X-2-3-X-3--0-5-------------5/0--|
E------------------------------------------|
  
   Ohh! Oooohh! Sweet love of mine
e------------------------------------------|
B------------------------------------------|
G---2-X-2-X-4-5-X-5--2-7--x-x-7-7-7-7-7-7--|
D---2-X-2-X-4-5-X-5--2-7--x-x-7-7-7-7-7-7--|
A---0-X-0-X-2-3-X-3--0-5--x-x-5-5-5-5-5-5--|
E------------------------------------------|

   Ohh! Oooohh! Sweet child o' mine
e------------------------------------------|
B-------------------------9r7--------------|
G---2-X-2--X-4-5-X-5--2-7-----7------------|
D---2-X-2--X-4-5-X-5--2-7-------7/5/4------|
A---0-X-0--X-2-3-X-3--0-5-------------5/0--|
E------------------------------------------|

   Ohh! Oooohh! Sweet love of mine
e--------------------------------------------------|
B--------------------------------------------------|
G---2-X-2-X-4-5-X-5-2-7-7-7-7-7-7-7-7-7-7-7-7-7-8--|
D---2-X-2-X-4-5-X-5-2-7-7-7-7-7-7-7-7-7-7-7-7-7-8--|
A---0-X-0-X-2-3-X-3-0-5-5-5-5-5-5-5-5-5-5-5-5-5-6--|
E--------------------------------------------------|

SOLO: Guitarra 2

Pueden tocar el punteo o los acordes
  
    Em              C               B7
e---------0---------------3---------------2---------------------
B-------0---0-----------1---1-----------0---0-------------------
G-----0-------0---0---0-------0---0---2-------2---2-------------
D---------------2---------------2---------------1---------------
A-------------------3---------------2---------------------------
E---0-----------------------------------------------------------
    
    Am
e---------0----------|  Esto se toca 4a veces, pero cuando esten 
B-------1---1--------|  tocando por cuarta vez solo tocaran hasta
G-----2-------2------|  la parte de B7, la de Am no la tocaran, 
D--------------------|  en cambio tocaran lo siguiente:
A---0----------------|
E---------------3-2--|

e------------------------------------|
B------------------------------------|
G---2-2-2-2-2-2-2-2-2-2-2-2-2-2-2-2--|
D---2-2-2-2-2-2-2-2-2-2-2-2-2-2-2-2--|
A---0-0-0-0-0-0-0-0-0-0-0-0-0-0-0-0--|
E------------------------------------|

La estrofa siguiente se toca 4 veces:

e--------------------------------------------|
B--------------------------------------------|
G-----------------------2-X-2--5-5-5-5-7-----|
D---2-X-2--2-4-5-X-5--2-2-X-2--5-5-5-5-7--5--|
A---2-X-2--2-4-5-X-5--2-0-X-0--3-3-3-3-5--5--|
E---0-X-0--0-2-3-X-3--0-------------------3--|

SOLO: Guitarra 1

Por ser un poco extenso tratare de usar todo el espacio que tengo por lo que algunas notas quedaran para la linea de abajo, solo traten de no perderse y como es un solo muy rapido si se toca lento obviamente no sera igual al original.

e-17b19~-15-14-15p14-----15-14-15p14----------14-----------------
B--------------------17~-------------17-16-17----17r15-12--------
G---------------------------------------------------------16r14--
D----------------------------------------------------------------
A----------------------------------------------------------------
E----------------------------------------------------------------

e----------------------------------------------------------------
B---------------------------13-12h13p12-------13b15-15r13-12-12~-
G-12-11h12p11------11-12-14-------------14-14--------------------
D-------------14~------------------------------------------------
A----------------------------------------------------------------
E----------------------------------------------------------------

e-------------15b17r15-------------------------------------------
B-12b13r12-------------------------------------------------------
G----------14-----------11b12r11~-9-9~-11b12r11-9-9-8b9-8~/11~---
D----------------------------------------------------------------
A----------------------------------------------------------------
E----------------------------------------------------------------

e----------------------------------------------------------------
B----------------------------------------------------------------
G-11b12r11-9-4b5r4-5-5/9~-11b12r11-9-8b9-8-9b11-9/11-------------
D----------------------------------------------------------------
A----------------------------------------------------------------
E----------------------------------------------------------------

e----------------------------------------------12/14-------14h15-
B----------------------------13-12-16-12-13-16-------16-17-------
G-------11h12p11----11-14/16-------------------------------------
D-13-14----------14----------------------------------------------
A----------------------------------------------------------------
E----------------------------------------------------------------

e----14-15-14/12----14----12h14-12----12-------------------------
B-17-------------15----15----------15----15b17r15p12-15b17-15b17~
G----------------------------------------------------------------
D----------------------------------------------------------------
A----------------------------------------------------------------
E----------------------------------------------------------------

e---------------------------------------------------------17-----
B-15b17r15p12----15b17-15b17~-15b17r15p12----17b19-17b19~--------
G-------------14--------------------------14---------------------
D----------------------------------------------------------------
A----------------------------------------------------------------
E----------------------------------------------------------------

e--------17------------------------------------------------------
B-17b19~----17b19~-17b19r17p15-15h17~-15b17-17-17r15-12~---------
G--------------------------------------------------------16r14p12
D----------------------------------------------------------------
A----------------------------------------------------------------
E----------------------------------------------------------------

e------------------------------------15-----15-----15-----15-----
B------------------------------------15-----15-----15-----15-----
G-14~p12-14~-12-14b15-12-14-12-14b16----b16----b16----b16----b16-
D----------------------------------------------------------------
A----------------------------------------------------------------
E----------------------------------------------------------------

e-15-------------------------------------------------------------
B-15-------------------------------------------------------------
G----16r14p12----14p12-x-x-12b13---------------x-x-12h14p12------
D-------------14-------x-x-------14p12-12h14~--x-x----------14---
A----------------------------------------------------------------
E----------------------------------------------------------------

e----------------------------------------------------------------
B------------------------------------------------------------12--
G-12b13--------------x-x-12h14p12----12-12-------14-14-12-14-----
D-------14p12-12h14~-x-x----------14-------14-12-----------------
A----------------------------------------------------------------
E----------------------------------------------------------------

e----------------------12-12-------15-15-12--15-14-12h15p12------
B-12-------15-15-12-15-------15-12--------------------------15---
G----14-12-------------------------------------------------------
D----------------------------------------------------------------
A----------------------------------------------------------------
E----------------------------------------------------------------

e----------12----------------12-------15b19r15~-12h15p12----12---
B-15b17-17----15p12-------12----15p12--------------------15------
G-------------------14b16----------------------------------------
D----------------------------------------------------------------
A----------------------------------------------------------------
E----------------------------------------------------------------

e----------12----------------------------------------------------
B-15b17-17----15p12-------------------15-------------------------
G-------------------14b16r14p12-14b16----16r14p12----14p12-------
D-------------------------------------------------14-------14----
A----------------------------------------------------------------
E----------------------------------------------------------------

e-------|
B-------|
G-12~\--|
D-------|
A-------|
E-------|

FINAL: Guitarra 2

Para el final tocaran lo siguiente 6 veces, lo harán de una manera no tan fuerte hasta la cuarta vez que lo toquen, ahí deben tocar con mas fuerza.

e-------------------------------------------|
B-------------------------------------------|
G-------?--------------2-x-2--5-5-5-5-7-----|
D--2-x-2-?2-4-5-x-5----2-x-2--5-5-5-5-7--5--|
A--2-x-2-?2-4-5-x-5----0-x-0--3-3-3-3-5--5--|
E--0-x-0?-0-2-3-x-3?---------------------3--|

luego de tocar lo anterior 6 veces sigue esto:

e---------------------------------------------|
B---------------------------------------------|
G-------?--------------2-x-2------------------|
D--2-x-2-?2-4-5-x-5----2-x-2------------------|
A--2-x-2-?2-4-5-x-5----0-x-0--7-5-------------|
E--0-x-0?-0-2-3-x-3?--------------7-6-5-3bp0--|

e-----------------------------------|
B-----------------------------------|
G-------?--------------2---5--7-----|
D--2-x-2-?2-4-5-x-5----2---5--7--2--|
A--2-x-2-?2-4-5-x-5----0---3--5--2--|
E--0-x-0?-0-2-3-x-3?-------------0--|

FINAL:Guitarra 1

lo dividiré en secciones que tocaran de acuerdo al tiempo que toquen en la canción:

e----------------------------------------------|
B--x-x-x-x-x--x-x--x-x-------x-7-x-------------|
G--x-x-x-x-x--x-x--x-x-12\9~-x-7-x-------------|
D--x-x-x-x-x--x-x--x-x-------x-7-x-------------|
A----------------------------------------------|
E----------------------------------------------|

e----------------------------------------------|
B----------------------------------------------|
G--x-x------x-x--------------------------------|
D--x-x-7p5--x-x-7p5----------------------------|
A--x-x------x-x-----7p5------------------------|
E-----------------------7p5\3------------------|
       
           11x
e-----|------------|---------------------------|
B-----|------------|-------15-b17r15-12--------|
G-----|------------|--12~--------------14-12---|
D--12-|--h14p12--|---------------------------|
A-----|------------|---------------------------|
E-----|------------|---------------------------|

e----------------------------------------------|
B--17-17-17-17-17-17-------17-17-17-17-17-17---|
G----------------------------------------------|
D----------------------------------------------|
A----------------------------------------------|
E----------------------------------------------|

e--22b24-24-24-24-24-24r22--------------------|
B---------------------------------------------|
G---------------------------------------------|
D---------------------------------------------|
A---------------------------------------------|
E---------------------------------------------|

e---------------------------------------------|
B--b24-24r22-24r22-24r22-24r22b24r22p20-------|
G---------------------------------------21~---|
D---------------------------------------------|
A---------------------------------------------|
E---------------------------------------------|

e--------12-----------------------------------------|
B--15b17----15p12---15p12h14p12---------------------|
G---------------------------------------------------|
D---------------------------------------------------|
A---------------------------------------------------|
E---------------------------------------------------|

e--12----------12----------12----------12----------|
B-----15p12-------15p12-------15p12-------15p12----|
G-----------14----------14----------14----------14-| 4x
D--------------------------------------------------|
A--------------------------------------------------|
E--------------------------------------------------|

e--12--------------------------------------------------|
B------15p12-------------15p17r15b17r15b17-15p12-------|
G------------14b16r14p12-------------------------14b16-|
D------------------------------------------------------|
A------------------------------------------------------|
E------------------------------------------------------|

e--------------------------------------------------|
B-------15-----------------------------------------|
G--14b16--16r14p12-14-14b16r14p12-14-14p12---------|
D-----------------------------------------14p12----|
A--------------------------------------------------|
E--------------------------------------------------|

e--------12-------12-------------------------------|
B--15b17----15b17----15-12-15b17-15-12-------------|
G--------------------------------------14b15-14-12-|
D--------------------------------------------------|
A--------------------------------------------------|
E--------------------------------------------------|

e--------------------------------------------------|
B--------------------------------------------------|
G--14~~-14\---x------------------------------------|
D-------------x--/14-14\9-9\5----------------------|
A-------------x---------------10\7\2---------------|
E------------------------------------3/5\3p0-------|

                       FIN

Bueno, eso ha sido todo, espero les haya gustado, gracias a todos y porfavor no dejen comentarios insultantes gracias.

Proxima cancion: AC/DC / Highway To Hell

Nos vemos...

Fuente: Tusacordes