a b c d e f g h i j k l m n o p q r s t u v w x y z 0-9

Why Do You Want Him?

Green Day

			
Intro: E - C#m - A - B x2 
       E - B - G#m - A x2

E ----------------------------|
B ----------------------------|
G ----9-9-9-9-6-6-6-6---------|
D ----9-9-9-9-6-6-6-6---------|
A ----7-7-7-7-4-4-4-4---------|
E ----------------------------|

E ----------------------------|
B ----------------------------|
G ----------------------------|
D ----7-7-7-7-9-9-9-9---------|
A ----7-7-7-7-9-9-9-9---------|
E ----5-5-5-5-7-7-7-7---------|x2

E ----------------------------|
B ----------------------------|
G ----1-1-1-1-4-4-4-4---------|
D ----2-2-2-2-4-4-4-4---------|
A ----2-2-2-2-2-2-2-2---------|
E ----------------------------|

E ----------------------------|
B ----------------------------|
G ----------------------------|
D ----6-6-6-6-7-7-7-7---------|
A ----6-6-6-6-7-7-7-7---------|
E ----4-4-4-4-5-5-5-5---------| X2

E           B 
I saw you standing alone,
G#m     A
With a sad look on your face,
E         B
You call him on the phone,
G#m         A
Looks like he left without a trace.,
E      B
Tears falling out of your eyes,
G#m   A
He's living in a disguise,
E             B
You've been feeling bad for so long,
G#m         A
You wonder if it's right or wrong...

Coro:

E          C#m  A B
Why do you want him?
E          C#m  A B
Why do you want him?
E          C#m  A B
Why do you want him?
E          C#m  A B
Why do you want him?

VERS0 2:

E          B
Now many days have gone by,
G#m        A
And you still just sit there and cry,
E               B
You're feeling bad for yourself,
G#m   A
His memory will always dwell,
E             B 
You're so obsessed with his love,
G#m     A
That's why push came to shove,
E             B 
You've been feeling bad for so long,
G#m             A
You wonder if it's right or wrong,

E-------------------------5------|
B-------------7-5-7-5-7-8---8-7--|
G--5b7----5-7--------------------|
D--------------------------------|
A--------------------------------|
E--------------------------------|

E--5-5--------------------------------------------|
B------8-8-7-7-8/10/8-7---------------------------|
G-----------------------7--6/7-7--6/7-7--6--------|
D------------------------------------------9-7-5--|
A-------------------------------------------------|
E-------------------------------------------------|

E--/7-9-9--/7-9-9--/7-9-9-9-9-9-9--|
B--/7-9-9--/7-9-9--/7-9-9-9-9-9-9--|
G----------------------------------|
D----------------------------------|
A----------------------------------|
|----------------------------------|

|---------------------------------------|
|--9------9------9----------------------|
|--11b13--11b13--11b13--9-11-9----9-----|
|------------------------------11---11--|
|---------------------------------------|
|---------------------------------------|

|---------------------------9-9-9---|
|---------------------------9-9-9---|
|--10-10-12p10----10-12--11b--------|
|--------------12-------------------|
|-----------------------------------|
|-----------------------------------|

|------9-9-9--------12p11p9----9b--|
|------9-9-9--5x----------12-----|
|--11b-----------------------------|
|----------------------------------|
|----------------------------------|
|----------------------------------|Fuente: Tus acordes