a b c d e f g h i j k l m n o p q r s t u v w x y z 0-9

Why Do You Want Him?

Green Day

			
Intro/Chorus
e|---------------------------------------------------------------------------|
B|---------------------------------------------------------------------------|
G|-8-8-8-8-5-5-5-5-----------------------------------------------------------|
D|-8-8-8-8-5-5-5-5-6-6-6-6-8-8-8-8-------------------------------------------|
A|-6-6-6-6-3-3-3-3-6-6-6-6-8-8-8-8-------------------------------------------|
E|-----------------4-4-4-4-6-6-6-6-------------------------------------------|
Verse
e|---------------------------------------------------------------------------|
B|---------------------------------------------------------------------------|
G|-9-9-9-9-------------------------------------------------------------------|
D|-9-9-9-9-7-7-7-7-4-4-4-4-5-5-5-5-------------------------------------------|
A|-7-7-7-7-7-7-7-7-4-4-4-4-5-5-5-5-------------------------------------------|
E|---------5-5-5-5-2-2-2-2-3-3-3-3-------------------------------------------|
Bridge
e|---------------------------------------------------------------------------|
B|---------------------------------------------------------------------------|
G|-----4---------------------------------------------------------------------|
D|-5-7-4-7-5-----------------------------------------------------------------|
A|-5-7-2-7-5-----------------------------------------------------------------|
E|-3-5---5-3-----------------------------------------------------------------|

Fuente: tusacordes.com