a b c d e f g h i j k l m n o p q r s t u v w x y z 0-9

When I Come Around

Green Day

			
Espero que les guste esta me costo un poco mas que las otras 2 :)

e--6--7--6--4--6-----------6-9-11-9------9--9------6--9--11--9---
B-----------------7------------------11---------o--------------o-
G----------------------------------------------------------------
D----------------------------------------------------------------
A-----------------------------------------------o--------------o-
E----------------------------------------------------------------

e------9--9---9---14--14---11--9---7---6--4--6---7--6--4--2--7---
B-11-------------------------------------------------------------
G----------------------------------------------------------------
D----------------------------------------------------------------
A----------------------------------------------------------------
E----------------------------------------------------------------

e--6---------6-7-6-4-6-----------------------6--9--11--9-----9-9-
B-----7----------------7----------------------------------11-----
G----------------------------------------------------------------
D----------------------------------------------------------------
A----------------------------------------------------------------
E----------------------------------------------------------------

e----6--9--11--9---9--6--9--11--9------9--9-----9--14-14--11-9---
B--o-------------o-----------------11----------------------------
G----------------------------------------------------------------
D----------------------------------------------------------------
A--o-------------o-----------------------------------------------
E----------------------------------------------------------------

e---7---6--4--6-7----6--4--2--7--6------------4-4-4--6-6--7--6---
B-----------------------------------7--------------------------7-
G----------------------------------------------------------------
D----------------------------------------------------------------
A----------------------------------------------------------------
E----------------------------------------------------------------

e---9--9--11--9--6--9--9---------11--9-9-9--6--9-----------------
B----------------------------------------------------------------
G----------------------------------------------------------------
D----------------------------------------------------------------
A----------------------------------------------------------------
E----------------------------------------------------------------

Y se repite PD: ----6--9--11--9-- Esto significa que lo tienen 
que tocar 2     -o--------------o
  veces         -----------------
                -----------------
                -o--------------o
                -----------------
seguimos :D
e---b14-------------4-4-4-6-6-7-6--------9-9-11--9--6---9--9-----
B---------------------------------7------------------------------
G----------------------------------------------------------------
D----------------------------------------------------------------
A----------------------------------------------------------------
E----------------------------------------------------------------

e--11--9-9-9--6--9--------11--9-9-9--6--9------------------------
B----------------------------------------------------------------
G----------------------------------------------------------------
D----------------------------------------------------------------
A----------------------------------------------------------------
E----------------------------------------------------------------

e-----11--9-9-9--6--9--------------------------------------------
B----------------------------------------------------------------
G----------------------------------------------------------------
D----------------------------------------------------------------
A----------------------------------------------------------------
E----------------------------------------------------------------

Otra cosa en ---b14-- se toca un solo pero eso si es la guitarra es asi 

e---2--------------4-------------2------2--4---2------2-----4----
B------2--2--2--------2--2--2-------2------------2------2-----2--
G----------------------------------------------------------------
D----------------------------------------------------------------
A----------------------------------------------------------------
E----------------------------------------------------------------

e---4--2---------------------------------------------------------
B--------2------4--4--4--0-------0-0-0---------------------------
G----------------------------------------------------------------
D----------------------------------------------------------------
A----------------------------------------------------------------
E----------------------------------------------------------------

Fuente: Tusacordes