a b c d e f g h i j k l m n o p q r s t u v w x y z 0-9

When I Come Around

Green Day

			
When I come around

e|---------------------------------------------|
B|---------------------------------------------|
G|-------------------------7-------9--3~-3---|
D|--55--------5-----------7-------9--3~-3--|
A|--55--------5-----5-5--5---7--7--3~-3---|
E|--33--3-3--3-------------------------------|
             X X            X X         X
e|-----------------------------------|
B|-----------------------------------|
G|----------------7------9--3~-3---|
D|--5-5----------7-------9--3~-3--|
A|--5-5----5-5--5---7--7--3~-3---|
E|--3-5-----------------------------|
                  X X         X
e|-------------------------------------|
B|-------------------------------------|
G|--------------------7-----9--3~-3--|
D|-------5-----------7------9--3~-3-|
A|-------5-----5-5--5---7-7--3~-3--|
E|-3-3--3----------------------------|
     X X            X X        X 
e|-------------------------------------|
B|-------------------------------------|
G|--------------------7-----9--3~-3--|
D|-------5-----------7------9--3~-3-|
A|-------5-----5-5--5---7-7--3~-3--|
E|-3-3--3----------------------------|
     X X            X X        X 

e|-------------------------------------|
B|-------------------------------------|
G|--------------------7-----9--3~-3--|
D|-------5-----------7------9--3~-3-|
A|-------5-----5-5--5---7-7--3~-3--|
E|-3-3--3----------------------------|
     X X            X X        X 
e|-------------------------------------|
B|-------------------------------------|
G|--------------------7-----9--3~-3--|
D|-------5-----------7------9--3~-3-|
A|-------5-----5-5--5---7-7--3~-3--|
E|-3-3--3----------------------------|
     X X            X X        X 


e|-------------------------------------|
B|-------------------------------------|
G|--------------------7-----9--3~-3--|
D|-------5-----------7------9--3~-3-|
A|-------5-----5-5--5---7-7--3~-3--|
E|-3-3--3----------------------------|
     X X            X X        X 
e|-------------------------------------|
B|-------------------------------------|
G|--------------------7-----9--3~-3--|
D|-------5-----------7------9--3~-3-|
A|-------5-----5-5--5---7-7--3~-3--|
E|-3-3--3----------------------------|
     X X            X X        X 
e|-------------------------------------|
B|-------------------------------------|
G|--------------------7-----9--3~-3--|
D|-------5-----------7------9--3~-3-|
A|-------5-----5-5--5---7-7--3~-3--|
E|-3-3--3----------------------------|
     X X            X X        X 


e|-------------------------------------|
B|-------------------------------------|
G|--------------------7-----9--3~-3--|
D|-------5-----------7------9--3~-3-|
A|-------5-----5-5--5---7-7--3~-3--|
E|-3-3--3----------------------------|
     X X            X X        X 
e|-------------------------------------|
B|-------------------------------------|
G|--------------------7-----9--3~-3--|
D|-------5-----------7------9--3~-3-|
A|-------5-----5-5--5---7-7--3~-3--|
E|-3-3--3----------------------------|
     X X            X X        X 
e|-------------------------------------|
B|-------------------------------------|
G|--------------------7-----9--3~-3--|
D|-------5-----------7------9--3~-3-|
A|-------5-----5-5--5---7-7--3~-3--|
E|-3-3--3----------------------------|
     X X            X X        X 



e|-----------------------------------|
B|----------------------------------|
G|-------------------55555555---|
D|--77777777-----55555555---|
A|--77777777-----33333333---|
E|--55555555--------------------|

e|-----------------------------------|
B|----------------------------------|
G|-------------------55555555---|
D|--77777777-----55555555---|
A|--77777777-----33333333---|
E|--55555555--------------------|

e|-----------------------------------|
B|-----------------------------------|
G|----------------7------9--3~-3---|
D|--5-5----------7-------9--3~-3--|
A|--5-5----5-5--5---7--7--3~-3---|
E|--3-5-----------------------------|
                  X X         X

e|-------------------------------------|
B|-------------------------------------|
G|--------------------7-----9--3~-3--|
D|-------5-----------7------9--3~-3-|
A|-------5-----5-5--5---7-7--3~-3--|
E|-3-3--3----------------------------|
     X X            X X        X 
e|-------------------------------------|
B|-------------------------------------|
G|--------------------7-----9--3~-3--|
D|-------5-----------7------9--3~-3-|
A|-------5-----5-5--5---7-7--3~-3--|
E|-3-3--3----------------------------|
     X X            X X        X 
e|-------------------------------------|
B|-------------------------------------|
G|--------------------7-----9--3~-3--|
D|-------5-----------7------9--3~-3-|
A|-------5-----5-5--5---7-7--3~-3--|
E|-3-3--3----------------------------|
     X X            X X        X 

e|-------------------------------------|
B|-------------------------------------|
G|--------------------7-----9--3~-3--|
D|-------5-----------7------9--3~-3-|
A|-------5-----5-5--5---7-7--3~-3--|
E|-3-3--3----------------------------|
     X X            X X        X 
e|-------------------------------------|
B|-------------------------------------|
G|--------------------7-----9--3~-3--|
D|-------5-----------7------9--3~-3-|
A|-------5-----5-5--5---7-7--3~-3--|
E|-3-3--3----------------------------|
     X X            X X        X 



e|-------------------------------------|
B|-------------------------------------|
G|--------------------7-----9--3~-3--|
D|-------5-----------7------9--3~-3-|
A|-------5-----5-5--5---7-7--3~-3--|
E|-3-3--3----------------------------|
     X X            X X        X 
e|-------------------------------------|
B|-------------------------------------|
G|--------------------7-----9--3~-3--|
D|-------5-----------7------9--3~-3-|
A|-------5-----5-5--5---7-7--3~-3--|
E|-3-3--3----------------------------|
     X X            X X        X



e|-----------------------------------|
B|----------------------------------|
G|-------------------55555555---|
D|--77777777-----55555555---|
A|--77777777-----33333333---|
E|--55555555--------------------|

e|-----------------------------------|
B|----------------------------------|
G|-------------------55555555---|
D|--77777777-----55555555---|
A|--77777777-----33333333---|
E|--55555555--------------------|

e|-----------------------------------|
B|-----------------------------------|
G|----------------7------9--3~-3---|
D|--5-5----------7-------9--3~-3--|
A|--5-5----5-5--5---7--7--3~-3---|
E|--3-5-----------------------------|
                  X X         X
e|-------------------------------------|
B|-------------------------------------|
G|--------------------7-----9--3~-3--|
D|-------5-----------7------9--3~-3-|
A|-------5-----5-5--5---7-7--3~-3--|
E|-3-3--3----------------------------|
     X X            X X        X

1ª guitarra
e|--3-------5--------3-----5--0-0-0--0-0-5--0-0-0--------|
B|----3---3---3---3---3------0-------0---------------5b--2b|
G|------0-------0--------0-------------------------------|
D|---------------------------------------------------------------|
A|---------------------------------------------------------------|
E|---------------------------------------------------------------|

2ª guitarra solo se toca estas 2 veces
e|-------------------------------------|
B|-------------------------------------|
G|--------------------7-----9--3~-3--|
D|-------5-----------7------9--3~-3-|
A|-------5-----5-5--5---7-7--3~-3--|
E|-3-3--3----------------------------|
     X X            X X        X
  
e|-------------------------------------|
B|-------------------------------------|
G|--------------------7-----9--3~-3--|
D|-------5-----------7------9--3~-3-|
A|-------5-----5-5--5---7-7--3~--3-|
E|-3-3--3----------------------------|
     X X            X X        X 

e|-----------------------------------|
B|----------------------------------|
G|-------------------55555555---|
D|--77777777-----55555555---|
A|--77777777-----33333333---|
E|--55555555--------------------|

e|-----------------------------------|
B|----------------------------------|
G|-------------------55555555---|
D|--77777777-----55555555---|
A|--77777777-----33333333---|
E|--55555555--------------------|

e|-----------------------------------|
B|-----------------------------------|
G|----------------7------9--3~-3---|
D|--5-5----------7-------9--3~-3--|
A|--5-5----5-5--5---7--7--3~-3---|
E|--3-5-----------------------------|
                  X X         X


e|-------------------------------------|
B|-------------------------------------|
G|--------------------7-----9--3~-3--|
D|-------5-----------7------9--3~-3-|
A|-------5-----5-5--5---7-7--3~-3--|
E|-3-3--3----------------------------|
     X X            X X        X 


e|-------------------------------------|
B|-------------------------------------|
G|--------------------7-----9--3~-3--|
D|-------5-----------7------9--3~-3-|
A|-------5-----5-5--5---7-7--3~-3--|
E|-3-3--3----------------------------|
     X X            X X        X 
e|-------------------------------------|
B|-------------------------------------|
G|--------------------7-----9--3~---|
D|-------5-----------7------9--3~--|
A|-------5-----5-5--5---7-7--3~---|
E|-3-3--3----------------------------|
     X X            X X        X

Fuente: Tusacordes