a b c d e f g h i j k l m n o p q r s t u v w x y z 0-9

When I Come Around

Green Day

			
nesecita overdrive:
   


                                           x10
 |-----------------------------------------|
 |-----------------------------------------|
 |-----------------------------------------|
 |--------7-7-7--9-9--3-3------------------|
 |--5-5-5-5-5-5--7-7--5-5------------------|
 |--3-3-3----------------------------------|


                                              x2
 |-------------------------------------------|
 |-------------------------------------------|
 |-2-2-2-2-2-2-2-2--5-5-5-5-5-5-5-5----------|
 |-2-2-2-2-2-2-2-2--5-5-5-5-5-5-5-5----------|
 |-0-0-0-0-0-0-0-0--3-3-3-3-3-3-3-3----------|
 |-------------------------------------------|



  academia musical baqueta

Fuente: Tusacordes