a b c d e f g h i j k l m n o p q r s t u v w x y z 0-9

When I Come Around

Green Day

			
Verso

e |---------------|---------------|---------------|------|
B |---------------|---------------|---------------|------|
G |---------------|---------------|---------------|------| 
D |---------------|-----6---6-----|-----8---8-----|---4--|
A |---4--4--4-----|-----4---4-----|-----6---6-----|---2--|
E |---2--2--2-----|---------------|---------------|------|

Coro

e|--------------------------------------------------------------|
B|---------------------------------------------------------------|
G|------5--------------------------------------------------------|
D|-7----5--------------------------------------------------------|
A|-7----3--------------------------------------------------------|
E|-5-------------------------------------------------------------|

Bridge
             
e|-----------3-------5-------3-----5--0-0-0--0-0-5--0-0-0--------|
B|-------------3---3---3---3---3------0------0-------------5b--2b|
G|-verso x2----0-------0-------0-------------------------------|
D|---------------------------------------------------------------|
A|---------------------------------------------------------------|
E|---------------------------------------------------------------|


Orden

-Intro

-Verso

-Coro

-Verso

-Coro

-Bridge

-Coro

-Final en verso x4

Fuente: tusacordes.com