a b c d e f g h i j k l m n o p q r s t u v w x y z 0-9

When I Come Around

Green Day

G
D
E
C
A
			
Intro: G, D, E, C

  Verse
  G   D   E   C  [x8]
e|---------------------------------------------------------------|
B|---------------------------------------------------------------|
G|------7----9----5----------------------------------------------|
D|-5----7----9----5----------------------------------------------|
A|-5----5----7----3----------------------------------------------|
E|-3-------------------------------------------------------------|

CORO   A  C [x2]
e|---------------------------------------------------------------|
B|---------------------------------------------------------------|
G|------5--------------------------------------------------------|
D|-7----5--------------------------------------------------------|
A|-7----3--------------------------------------------------------|
E|-5-------------------------------------------------------------|

Parte2[Solo]             [played over verse chords]
e|-----------3-------5-------3-----5--0-0-0--0-0-5--0-0-0--------|
B|-------------3---3---3---3---3------0------0-------------5b--2b|
G|-[verse x2]----0-------0-------0-------------------------------|
D|---------------------------------------------------------------|
A|---------------------------------------------------------------|
E|---------------------------------------------------------------|

I heard you cry it loud
All the way across town
You've been searchin
For that someone
And it's me out of the crowd
As you sit around
Feeling sorry for yourself
					[Verse 1]
So don't get lonely now
And dry your whinin eyes
I'm just roamin for the moment
Sleazin my backyard so don't get
So uptight you've been thinkin
About ditchin me

No time to search the world around
Cuz you know where I'll be found        [Chorus]
When I come around

I heard it all before
So don't knock down my door
I'm a loser, and a user
So I don't need no accuser
To try and slag me down
Because I know you're right
					[Verse 2]
So go do what you like
Make sure you do it wise
You may find out that your self-doubt
Means nothing was ever there
You can't go forcing something
If it's just not right
 

Fuente: Lacuerda