a b c d e f g h i j k l m n o p q r s t u v w x y z 0-9

Whatsername

Green Day

D
B
G
F#
A
			
Intro:[palm mute] D    B   [repeat 2x] 
 
Verse 1: 
D                           B 
Thought I ran into you down on the street 
D                          B 
Then it turned out to only be a dream 
 
  
G        D[2]                F#               B    A  
I made a point to burn all of the photographs 
G        D[2]                F#                 B    A  
She went away and then I took a different path 
G            D[2]             F#                 B    A  
I remember the face but I can't recall the name 
G                A 
Now I wonder how whatsername has been.
 
 
 
 
Solo 1: 
[palm mute chords] 
   D          B            D          B 
E---------------------------------------------- 
B--3--5/7--3--0--2--3------3--5/7--3--0--2--3-- 
G---------------------------------------------- 
D---------------------------------------------- 
A---------------------------------------------- 
E---------------------------------------------- 
 
Verse 2: 
D                          B 
Seems that she disappeared without a trace 
D                     B 
Did she ever marry oh whats-his-face? 
 
 
Chorus: 
G        D[2]                F#               B    A  
I made a point to burn all of the photographs 
G        D[2]                F#                 B    A  
She went away and then I took a different path 
G            D[2]             F#                 B    A  
I remember the face but I can't recall the name 
G                A 
Now I wonder how whatsername has been. 
 
Bridge: 
   D                                                       B 
E------------------------------------------------------------------------------------------- 
B------------------------------------------------------------------------------------------- 
G--------6h7-----7--6-----6h7--------6h7-----7--6-----6h7----------------------------------- 
D-----7-------7--------7----------7-------7--------7-------9-9-9-9-9-9-9-9-9-9-9-9-9-9-9-9-- 
A--5---------------------------5---------------------------9-9-9-9-9-9-9-9-9-9-9-9-9-9-9-9-- 
E----------------------------------------------------------9-9-9-9-9-9-9-9-9-9-9-9-9-9-9-9-- 
[repeat twice] 
 
G   D[2]   F#   B   A   [repeat 2x] 
G 
Remember 
D[2] 
Whatever 
A             D[2] 
It seems like forever ago 
G 
Remember 
D[2] 
Whatever 
A             D[2] 
It seems like forever ago 
G 
The regrets [Remember] 
D[2]                 F# 
Are useless in my mind [Whatever] 
                  B     A 
She's in my head I must confess [It seems like forever ago] 
G 
The regrets [Remember] 
D[2]                 F# 
Are useless in my mind [Whatever] 
                    B     A 
She's in my head so long ago [It seems like forever ago] 
 
 
G   D[2]   F#   B   A   [repeat 2x] 
Go...  go...   go.. 
 
G          A          D[2] 
And in the darkest nights 
G          A           D[2] 
If my memory serves me right 
G          A             D[2] 
I'll never turn back time 
G          A           
Forgetting you but not the time 
 
 
Outro: 
D   B    D    B 
 
 
[palm mute chords] 
   D          B         
E---------------------- 
B--3--5/7--3--0--2--3-- 
G---------------------- 
D---------------------- 
A---------------------- 
E----------------------

Fuente: Tusacordes