a b c d e f g h i j k l m n o p q r s t u v w x y z 0-9

Warning

Green Day

			
Esto lo hace casi todo el tema:
G----------------------------------------------
D---------------------4-5-5--4-----------------
A-----------4-5-5---7-----------7--5--4--------
E--5-5---7-------------------------------7--5...
tambien puede hacerse de esta forma, pero recomiendo la otra ya que les puede servir como un buen ejercicio de dedo especialmente para el meñique:
G-------------------0-0-------------------------
D----------0-0-2-4-------4--2-0-----------------
A--0-0-2-4-----------------------4--2--0--------
E-----------------------------------------------

Despues en la parte lenta hace esto:
G-----------------------------------------
D-----------------------------------------
A----4---------------4--------------------
E--5---5---3-0---5-5---5--3-0-------------


Fuente: tusacordes.com