a b c d e f g h i j k l m n o p q r s t u v w x y z 0-9

Walking Contradiction

Green Day

			
walking contradiction

       verso:
  
      |1|----------------------------|
      |2|----------------------------|
      |3|------6-6-------------------|
      |4|-6-6--6-6--4-4--6-6-6-------|
      |5|-6-6--4-4--4-4--6-6-6-------|
      |6|-4-4-------2-2--4-4-4-------|



      estribillo:

      |1|----------------------------|
      |2|----------------------------|
      |3|-6-6-6----------------------|
      |4|-6-6-6--4-4-4--6-6-6-6-6-6--|
      |5|-4-4-4--4-4-4--6-6-6-6-6-6--|
      |6|--------2-2-2--4-4-4-4-4-4--|

       verso
       estribillo
       verso
       estribillo
       estribillo
       verso

Fuente: Tusacordes