a b c d e f g h i j k l m n o p q r s t u v w x y z 0-9

Walking Contradiction

Green Day

			
les dejo esta buena cancion


Verse
  
    G5    C5   F5   G5  x4
e------------------------|
B------------------------|
G---------5--------------|   LUEGO VA Otro verso y c repite
D----5----5----3----5----|   igual
A----5----3----3----5----|
E----3---------1----3----|


Chorus
   
    C5   G5   F5      X3 
e------------------------|
B------------------------|
G----5-------------------|
D----5----5----3---------|
A----3----5----3---------|
E---------3----1---------|

Fuente: Tusacordes