a b c d e f g h i j k l m n o p q r s t u v w x y z 0-9

Wake Me Up When September Ends

Green Day

			
WAKE ME UP WHEN SEPTEMBER ENDS ? GREEN DAY

GUITARRA 1: ARPEGEO
GUITARRA 2: PUNTEOS
GUITARRA 3: ELECTRICA-ACORDES


Intro:

GUITARRA 1
     G               G              G             G  
e|---------------------------------------------------------|
B|------3-----3-------3-----3-------3-----3-------3-----3--|
G|----0-----0-------0-----0-------0-----0-------0-----0----|
D|--5-----5-------5-----5-------5-----5-------5-----5------|
A|---------------------------------------------------------|
E|---------------------------------------------------------|

ESTROFA 1

  Summer has  come and passed  The innocent  can never last
      G          F#m               Em            D    

GUITARRA 1
E|----------------------------------------------------------|
B|----3----3--------3------3--------3-----3------3------3---|
G|--0----0-------0------0---------0-----0------0------0-----|
D|5----5------4------4----------2------2-----0------0-------|
A|----------------------------------------------------------|
E|----------------------------------------------------------|

   Wake me up    when September ends
    C  		     Cm              G                	

GUITARRA 1	
E|----------------------------------------------------------|
B|-----5-----5---------4-----4---------3------3------3?----3|
G|---5-----5---5-----5-----5---5-----0------0------0-----0--|
D|---------------------------------5------5------5-----5----|
A|-3-----3---------3-----3----------------------------------|
E|----------------------------------------------------------|


 
 Like my fathers   come to pass   Seven years has gone so fast
    G              F#m               Em            D    

GUITARRA 1
e|----------------------------------------------------------|
B|----3------3---------3-----3-------3------3--------3-----3|
G|--0------0---------0-----0-------0------0--------0-----0--|
D|5------5---------4-----4-------2------2--------0-----0----|
A|----------------------------------------------------------|
E|----------------------------------------------------------|

GUITARRA 2
E|-15--------------14------------12--------------10---------|
B|----------------------------------------------------------|
G|-12--------------11------------9----------------7---------|
D|----------------------------------------------------------|
A|----------------------------------------------------------|
E|----------------------------------------------------------|
    Wake me up   when September ends
    C               Cm          G            G       G/F#  

GUITARRA 1
E|----------------------------------------|-----------------|
B|----5----5--------4----4--------3-----3-|-----3?-------3--|
G|--5----5---5----5----5---5----0-----0---|---0--------0----|
D|----------------------------5-----5-----|-5-----5--4-----4|
A|3----3--------3----3--------------------|-----------------|
E|----------------------------------------|-----------------|

GUITARRA 2
E|-8-------------11------------15---------------------------|
B|----------------------------------------------------------|
G|-5--------------8------------12---------------------------|
D|----------------------------------------------------------|
A|----------------------------------------------------------|
E|----------------------------------------------------------|


ESTRIBILLO

   Here comes the   rain again    Falling from the stars
    Em                Bm           C              G      F#

GUITARRA 1
e|--------------------------------------------|-------------|
B|----0----0---------3-----3---------5-----5--|---3------3--|
G|--0---0---0------4---4----4------5---5----5-|-----0------2|
D|-2-----2--------4-----4---------5-----5-----|--0------0---|
A|-2--------------2---------------3-----------|-------------|
E|--------------------------------------------|-3------2----|

GUITARRA 2
E|--7--------------5---------------8-------------10---------|
B|--------------------------------------8--------------10---|
G|--4--------------2---------------5-------------7----------|
D|----------------------------------------------------------|
A|----------------------------------------------------------|
E|----------------------------------------------------------|


  Drenched in my   pain again    Becoming who we are
    Em                Bm           C              D  

GUITARRA 1  
E|----------------------------------------------------------|
B|----0----0--------3-----3--------5-----5-------7---7/8/7--|
G|--0---0---0-----4---4----4-----5---5----5----7---7-------7|
D|-2-----2-------4-----4--------5-----5-------7-----7-------|
A|-2-------------2--------------3-------------5-------------|
E|----------------------------------------------------------|

GUITARRA 2
E|--7--------------5---------------8-------------10---------|
B|----------------------------------------------------------|
G|--4--------------2---------------5-------------7----------|
D|----------------------------------------------------------|
A|----------------------------------------------------------|
E|----------------------------------------------------------|


ESTROFA 2

   As my memory rests   But never forgets what I lost
    G           F#m               Em            D  

GUITARRA 1  
e|----------------------------------------------------------|
B|----3------3---------3-----3-------3------3--------3-----3|
G|--0------0---------0-----0-------0------0--------0-----0--|
D|5------5---------4-----4-------2------2--------0-----0----|
A|----------------------------------------------------------|
E|----------------------------------------------------------|

GUITARRA 2
E|-15--------------14------------12--------------10---------|
B|----------------------------------------------------------|
G|-12--------------11------------9----------------7---------|
D|----------------------------------------------------------|
A|----------------------------------------------------------|
E|----------------------------------------------------------|


  Wake me up    when September ends
   C  		     Cm              G               G 	

GUITARRA 1	
E|----------------------------------------------------------|
B|-----5-----5---------4-----4---------3------3------3?----3|
G|---5-----5---5-----5-----5---5-----0------0------0-----0--|
D|---------------------------------5------5------5-----5----|
A|-3-----3---------3-----3----------------------------------|
E|----------------------------------------------------------|

GUITARRA 2
E|-8-------------11------------15---------------------------|
B|----------------------------------------------------------|
G|-5--------------8------------12---------------------------|
D|----------------------------------------------------------|
A|----------------------------------------------------------|
E|----------------------------------------------------------|

-.-.-.-.-.-.-.-.-.-.-.-.-.-.-.-.-.-.-.-.-.-.-.-.-.-.-.-.-.-.-.-.-.-.-
INTERMEDIO ENTRA LA ELECTRICA Y LA BATERIA

E|-----------------------------|----|
B|------3-----3-------3-----3--|----|
G|----0-----0-------0-----0----|-X3-|
D|--5-----5-------5-----5------|----|
A|-----------------------------|----|
E|-----------------------------|----|

...((bateria))

guitarra electrica:
e|----------------------------0-----|
B|------3-----3-------3-----3-------|
G|----0-----0-------0-----0---------|
D|--5-----5-------5-----5-----------|
A|----------------------------------|
E|----------------------------------|

.-.-.-.-.-.-.-.-.-.-.-.-.-.-.-.-.-.-.-.-.-.-.-.-.-.-.-.-.-.-.-.-.-.-.-
tocan guitarra 1 y 3 el mismo arpegio, la guitarra 2 hace el punteo. en la parte del coro, la guitarra 3 hace acordes mientras que la uno hace el arpegio.


ESTROFA 3

  Summer has  come and passed  The innocent  can never last
    G          F#m               Em            D    

GUITARRA 1, 3
E|----------------------------------------------------------|
B|----3----3--------3------3--------3-----3------3------3---|
G|--0----0-------0------0---------0-----0------0------0-----|
D|5----5------4------4----------2------2-----0------0-------|
A|----------------------------------------------------------|
E|----------------------------------------------------------|
      
GUITARRA 2
E|-15--------------14------------12--------------10---------|
B|----------------------------------------------------------|
G|-12--------------11------------9----------------7---------|
D|----------------------------------------------------------|
A|----------------------------------------------------------|
E|----------------------------------------------------------|


    
    Wake me up when September ends
      C5         Cm5             G5

GUITARRA 3
e|----3-3-3------3-3-3--------------------------------------|
B|----5-5-5------4-4-4--------------------------------------|
G|----5-5-5------5-5-5--------------------------------------|
D|----5-5-5------5-5-5----------5-5-5-----------------------|
A|----3-3-3------3-3-3----------5-5-5-----------------------|
E|----3-3-3------3-3-3----------3-3-3-----------------------|

GUITARRA 2
E|----8-------------11------------15------------------------|
B|----------------------------------------------------------|
G|----5--------------8------------12------------------------|
D|----------------------------------------------------------|
A|----------------------------------------------------------|
E|----------------------------------------------------------|

GUITARRA 1
E|----------------------------------------------------------|
B|-----5-----5---------4-----4---------3------3------3?----3|
G|---5-----5---5-----5-----5---5-----0------0------0-----0--|
D|---------------------------------5------5------5-----5----|
A|-3-----3---------3-----3----------------------------------|
E|----------------------------------------------------------|



  



 Ring out the bells again Like we did when spring began
    G          F#m               Em            D    

GUITARRA 1, 3
E|----------------------------------------------------------|
B|----3----3--------3------3--------3-----3------3------3---|
G|--0----0-------0------0---------0-----0------0------0-----|
D|5----5------4------4----------2------2-----0------0-------|
A|----------------------------------------------------------|
E|----------------------------------------------------------|
      
GUITARRA 2
E|-15--------------14------------12--------------10---------|
B|----------------------------------------------------------|
G|-12--------------11------------9----------------7---------|
D|----------------------------------------------------------|
A|----------------------------------------------------------|
E|----------------------------------------------------------|
      
 
      Wake me up when September ends
      C           Cm             G5         F#5

GUITARRA 3
e|----3-3-3-------3-3-3-------------------------------------|
B|----5-5-5-------4-4-3-------------------------------------|
G|----5-5-5-------5-5-5-------------------------------------|
D|----5-5-5-------5-5-5----------5-5-5---55-44--------------|
A|----3-3-3-------3-3-3----------5-5-5---55-44--------------|
E|----3-3-3-------3-3-3----------3-3-3---33-22--------------|
          
GUITARRA 1
E|----------------------------------------|-----------------|
B|----5----5--------4----4--------3-----3-|-----3?-------3--|
G|--5----5---5----5----5---5----0-----0---|---0--------0----|
D|----------------------------5-----5-----|-5-----5--4-----4|
A|3----3--------3----3--------------------|-----------------|
E|----------------------------------------|-----------------|

GUITARRA 2
E|-8-------------11------------15---------------------------|
B|----------------------------------------------------------|
G|-5--------------8------------12---------------------------|
D|----------------------------------------------------------|
A|----------------------------------------------------------|
E|----------------------------------------------------------|

ESTRIBILLO


   Here comes the rain again Falling from the stars 
    E5              B5         C5               G5     F#5

GUITARRA 3
e|----------------------------------------------------------|
B|----------------------------------------------------------|
G|-----------------4-4-4------5-5-5-------------------------|
D|-2-2-2-----------4-4-4------5-5-5----------5-5-5--4-4-4---|
A|-2-2-2-----------2-2-2------3-3-3----------5-5-5--4-4-4---|
E|-0-0-0-------------------------------------3-3-3--2-2-2---|

GUITARRA 1
e|--------------------------------------------|-------------|
B|----0----0---------3-----3---------5-----5--|---3------3--|
G|--0---0---0------4---4----4------5---5----5-|-----0------2|
D|-2-----2--------4-----4---------5-----5-----|--0------0---|
A|-2--------------2---------------3-----------|-------------|
E|--------------------------------------------|-3------2----|

GUITARRA 2
E|--7--------------5---------------8-------------10---------|
B|--------------------------------------8--------------10---|
G|--4--------------2---------------5-------------7----------|
D|----------------------------------------------------------|
A|----------------------------------------------------------|
E|----------------------------------------------------------|

  
Drenched in my pain again Becoming who we are
   E5             B5    C5            D5

GUITARRA 3
e|----------------------------------------------------------|
B|----------------------------------------------------------|
G|------------------4-4-4------5-5-5-----------7-7-7--------|
D|---2-2-2----------4-4-4------5-5-5-----------7-7-7--------|
A|---2-2-2----------2-2-2------3-3-3-----------5-5-5--------|
E|---0-0-0--------------------------------------------------|

GUITARRA 1  
E|----------------------------------------------------------|
B|----0----0--------3-----3--------5-----5-------7---7/8/7--|
G|--0---0---0-----4---4----4-----5---5----5----7---7-------7|
D|-2-----2-------4-----4--------5-----5-------7-----7-------|
A|-2-------------2--------------3-------------5-------------|
E|----------------------------------------------------------|

GUITARRA 2
E|--7--------------5---------------8-------------10---------|
B|----------------------------------------------------------|
G|--4--------------2---------------5-------------7----------|
D|----------------------------------------------------------|
A|----------------------------------------------------------|
E|----------------------------------------------------------|


ESTROFA 4

   As my memory rests   But never forgets what I lost
    G          F#m               Em            D    

GUITARRA 1, 3
E|----------------------------------------------------------|
B|----3----3--------3------3--------3-----3------3------3---|
G|--0----0-------0------0---------0-----0------0------0-----|
D|5----5------4------4----------2------2-----0------0-------|
A|----------------------------------------------------------|
E|----------------------------------------------------------|





GUITARRA 2
E|-15--------------14------------12--------------10---------|
B|----------------------------------------------------------|
G|-12--------------11------------9----------------7---------|
D|----------------------------------------------------------|
A|----------------------------------------------------------|
E|----------------------------------------------------------|

          
      Wake me up when September ends
      C           Cm             G5

GUITARRA 3
e|----3-3-3-------3-3-3-------------------------------------|
B|----5-5-5-------4-4-3-------------------------------------|
G|----5-5-5-------5-5-5-------------------------------------|
D|----5-5-5-------5-5-5----------5-5-5---55-44--------------|
A|----3-3-3-------3-3-3----------5-5-5---55-44--------------|
E|----3-3-3-------3-3-3----------3-3-3---33-22--------------|
          

GUITARRA 1
E|----------------------------------------|-----------------|
B|----5----5--------4----4--------3-----3-|-----3?-------3--|
G|--5----5---5----5----5---5----0-----0---|---0--------0----|
D|----------------------------5-----5-----|-5-----5--4-----4|
A|3----3--------3----3--------------------|-----------------|
E|----------------------------------------|-----------------|

GUITARRA 2
E|-8-------------11------------15---------------------------|
B|----------------------------------------------------------|
G|-5--------------8------------12---------------------------|
D|----------------------------------------------------------|
A|----------------------------------------------------------|
E|----------------------------------------------------------|

SOLO

GUITARRA 2
    E5                      B5                    C5              G5         F#5
E|--------------------------------------------------------------|-----------------------|
B|-----12-----12--12--------12-----12--12--------13-----13--13--|-----------------------|
G|12-12--12-12--12-----11-11--11-11--11-----12-12--12-12--12?---|12-12-12-12-11-11-11-11|
D|--------------------------------------------------------------|-----------------------|

GUITARRA 3
E|--------------------------------------------------------------------------------------|
B|--------------------------------------------------------------------------------------|
G|---------------------4-4-4---------------5-5-5----------------------------------------|
D|-2-2-2---------------4-4-4---------------5-5-5---------------------5-5-5--4-4-4-------|
A|-2-2-2---------------2-2-2---------------3-3-3---------------------5-5-5--4-4-4-------|
E|-0-0-0-------------------------------------------------------------3-3-3--2-2-2-------|

GUITARRA 1
E|---------------------------------------------------------------|----------------------|
B|----0----0-------------3-----3---------------5-----5-----------|---3---------3--------|
G|--0---0---0----------4---4----4------------5---5----5----------|-----0---------2------|
D|-2-----2------------4-----4---------------5-----5--------------|--0---------0---------|
A|-2-----------------2----------------------3--------------------|----------------------|
E|---------------------------------------------------------------|-3---------2----------|

GUITARRA 2
   E5                      B5                    C5
E|--------------------------------------------------------------|
B|-----12-----12--12--------12-----12--12--------13-----13--13--|
G|12-12--12-12--12-----11-11--11-11--11-----12-12--12-12--12?---|
D|--------------------------------------------------------------|

GUITARRA 3
e|--------------------------------------------------------------|
B|--------------------------------------------------------------|
G|---------------------4-4-4----------------5-5-5---------------|
D|-2-2-2---------------4-4-4----------------5-5-5---------------|
A|-2-2-2---------------2-2-2----------------3-3-3---------------|
E|-0-0-0--------------------------------------------------------|

GUITARRA 1
e|--------------------------------------------------------------|
B|----0----0--------------3-----3--------------5-----5----------|
G|--0---0---0-----------4---4----4-----------5---5----5---------|
D|-2-----2-------------4-----4--------------5-----5-------------|
A|-2-------------------2--------------------3-------------------|
E|--------------------------------------------------------------|

GUITARRA 2
     D5               D5               D5             G5
E|--------------------------------------------------------------|
B|15-15-15-15--15-15-15-15--15-15-15-15--15-15-15-15-----8..----|
G|12-12-12-12--11-11-11-11--12-12-12-12--11-11-11-11-----x..----|
D|-------------------------------------------------------5..----|

GUITARRA 3
e|----------------|----|---------------------------------------3--------|
B|----------------|----|---------------------------------------3--------|
G|---7-7-7--------|-X3-|---------------------------------------4--------|
D|---7-7-7--------|----|---------------------------------------5--------|
A|---5-5-5--------|----|---------------------------------------5--------|
E|----------------|----|---------------------------------------3--------|

GUITARRA 1
E|-------------------|----|
B|-------7-----7-----|----|
G|-----7---7-----7---|-X3-|
D|----7-----7--------|----|
A|----5--------------|----|
E|-------------------|----|


INTRO


GUITARRA 1
e|-----------------------------------------------------3---|
B|------3-----3-------3-----3-------3-----3-------3--------|
G|----0-----0-------0-----0-------0-----0-------0-----0----|
D|--5-----5-------5-----5-------5-----5-------5-----5------|
A|---------------------------------------------------------|
E|---------------------------------------------------------|




GUITARRA 2
E|---------------------------------------?---------15------|
B|--15------------15------------15-------------15----------|
G|-------12------------12------------12--------------------|
D|---------------------------------------------------------|
A|---------------------------------------------------------|
E|---------------------------------------------------------|

ESTROFA 5

  Summer has  come and passed  The innocent  can never last
    G          F#m               Em            D    

GUITARRA 1
E|----------------------------------------------------------|
B|----3----3--------3------3--------3-----3------3------3---|
G|--0----0-------0------0---------0-----0------0------0-----|
D|5----5------4------4----------2------2-----0------0-------|
A|----------------------------------------------------------|
E|----------------------------------------------------------|
      
GUITARRA 2
E|-15--------------14------------12--------------10---------|
B|----------------------------------------------------------|
G|-12--------------11------------9----------------7---------|
D|----------------------------------------------------------|
A|----------------------------------------------------------|
E|----------------------------------------------------------|


    
    Wake me up when September ends
      C5         Cm5             G5

GUITARRA 3
e|----3-3-3------3-3-3--------------------------------------|
B|----5-5-5------4-4-4--------------------------------------|
G|----5-5-5------5-5-5--------------------------------------|
D|----5-5-5------5-5-5----------5-5-5-----------------------|
A|----3-3-3------3-3-3----------5-5-5-----------------------|
E|----3-3-3------3-3-3----------3-3-3-----------------------|

GUITARRA 2
E|----8-------------11------------15------------------------|
B|----------------------------------------------------------|
G|----5--------------8------------12------------------------|
D|----------------------------------------------------------|
A|----------------------------------------------------------|
E|----------------------------------------------------------|

GUITARRA 1
E|----------------------------------------------------------|
B|-----5-----5---------4-----4---------3------3------3?----3|
G|---5-----5---5-----5-----5---5-----0------0------0-----0--|
D|---------------------------------5------5------5-----5----|
A|-3-----3---------3-----3----------------------------------|
E|----------------------------------------------------------|





Like my fathers   come to pass   Seven years has gone so fast
    G              F#m               Em            D    

GUITARRA 1, 3
e|----------------------------------------------------------|
B|----3------3---------3-----3-------3------3--------3-----3|
G|--0------0---------0-----0-------0------0--------0-----0--|
D|5------5---------4-----4-------2------2--------0-----0----|
A|----------------------------------------------------------|
E|----------------------------------------------------------|

GUITARRA 2
E|-15--------------14------------12--------------10---------|
B|----------------------------------------------------------|
G|-12--------------11------------9----------------7---------|
D|----------------------------------------------------------|
A|----------------------------------------------------------|
E|----------------------------------------------------------|
     

-.-.-.-.-.-.-.-.-.-.-.-.-.-.-.-.-.-.-.-.-.-.-.-.-.-.-.-.-.-.-.-.-.-.-.-.
                                                                       
 Wake me up when September endS
      C5         Cm5             G5

GUITARRA 3
e|----3-3-3------3-3-3--------------------------------------|
B|----5-5-5------4-4-4--------------------------------------|
G|----5-5-5------5-5-5--------------------------------------|
D|----5-5-5------5-5-5----------5-5-5-----------------------|
A|----3-3-3------3-3-3----------5-5-5-----------------------|
E|----3-3-3------3-3-3----------3-3-3-----------------------|

GUITARRA 2
E|----8-------------11------------15------------------------|           --------X3
B|----------------------------------------------------------|
G|----5--------------8------------12------------------------|
D|----------------------------------------------------------|
A|----------------------------------------------------------|
E|----------------------------------------------------------|

GUITARRA 1
E|----------------------------------------------------------|
B|-----5-----5---------4-----4---------3------3------3?----3|
G|---5-----5---5-----5-----5---5-----0------0------0-----0--|
D|---------------------------------5------5------5-----5----|
A|-3-----3---------3-----3----------------------------------|
E|----------------------------------------------------------|

-.-.-.-.-.-.-.-.-.-.-.-.-.-.-.-.-.-.-.-.-.-.-.-.-.-.-.-.-.-.-.-.-.-.-.-.




e|------3-------3----------3-------3--------3---------|
B|--------3-------3----------5-------4------3---------|
G|----------4-------4---------5------5-----4----------|
D|----5-------5-------5----------5------5---5---------|
A|--5---------------------------------------5---------|
E|------------------------------------------3---------|



ESTRUCTURA?

 
INTRO
ESTROFA1
Summer has come and passed
The innocent can never last
wake me up when september ends

like my fathers come to pass
seven years has gone so fast
wake me up when september ends

ESTRIBILLO
here comes the rain again
falling from the stars
drenched in my pain again
becoming who we are

ESTROFA 2
as my memory rests
but never forgets what I lost
wake me up when september ends

INTERMEDIO ENTRA BATERIA Y GUITARRA 3
ESTROFA 3
summer has come and passed
the innocent can never last
wake me up when september ends

ring out the bells again
like we did when spring began
wake me up when september ends

ESTRIBILLO
here comes the rain again
falling from the stars
drenched in my pain again
becoming who we are

ESTROFA 4
as my memory rests
but never forgets what I lost
wake me up when september ends

SOLO

ESTROFA 5
Summer has come and passed
The innocent can never last
wake me up when september ends

like my father's come to pass
twenty years has gone so fast
wake me up when september ends
wake me up when september ends
wake me up when september ends

FIN

Fuente: Tusacordes